Descendents - Clean Sheets Chords & Tabs

 

Clean Sheets Chords & Tabs

Descendents Chords & Tabs

Version: 1 Type: Tab 0 ratings
1 star 2 stars 3 stars 4 stars 5 stars
comments

Clean Sheets Tab

#----------------------------------PLEASE NOTE---------------------------------#
#This file is the author's own work and represents their interpretation of the #
#song. You may only use this file for private study, scholarship, or research. #
#------------------------------------------------------------------------------##
From: Pancreas@vt.edu
Subject: TAB: Clean Sheets - The Descendents (Retry) - cleanshe.tab [1/1]
Date: Mon, 31 Jul 95 18:46:14 PST

This is the Solo for "Clean Sheets" by 
the Descendents off of the album "All"

xpy = x pull off to y
xhy = x hammer on y
xby = x bend to y
xry = play prebent to x and release down to y

e----------------------------------------------
B-----------------------3p1p0h1--3p1p0---------
G----------------4p2h4-------------------------
D---------5p4h5--------------------------------
A--7p5h7---------------------------------------
E----------------------------------------------

e--7r5-3----3-----3----------0--3--2-----0-----
B--------7-----5------3~~~~~----------3------1-
G----------------------------------------------
D----------------------------------------------
A----------------------------------------------
E----------------------------------------------

e-----------2-----3~~--3--2------3-2----7-5-3--
B-0-0--3-3----3-0------------3-------3---------
G----------------------------------------------
D----------------------------------------------
A----------------------------------------------
E----------------------------------------------

e---------------14---------15------------------
B-12-12--15--15----15--12----------------------
G----------------------------------------------
D----------------------------------------------
A----------------------------------------------
E----------------------------------------------

The chords are all power chords.  If anybody feels 
like sending this file back to me with all the 
lyrics attached to the end of it, I will put
chords over the words for them.  Otherwise, it is 
mainly E and D power chords like they play in the 
beginning, or G, B, C power chords like they
play during the verses.

Oh yeah, and play this little thing every 
now and then...
e----8p7----7-----
B--------8--------
G-----------------
D-----------------
A-----------------
E-----------------


Any comments?
Blobbie Pancreas
pancreas@vt.edu
[ Tab from: http://www.guitartabs.cc/tabs/d/descendents/clean_sheets_tab.html ]
From Pancreas@vt.edu Tue Aug  1 00:14:24 1995
Received: from post-office.nevada.edu (post-office.nevada.edu [131.216.1.11]) by alf2.tcd.ie (8.6.10/8.6.10) with ESMTP id AAA27252 for ; Tue, 1 Aug 1995 00:14:21 +0100
From: Pancreas@vt.edu
Received: from holodeck.cc.vt.edu (holodeck.cc.vt.edu [128.173.16.28]) by post-office.nevada.edu (8.6.11/8.6.4) with ESMTP id QAA05896 for ; Mon, 31 Jul 1995 16:13:46 -0700
Message-Id: 
Received: from as2511-5.sl001.cns.vt.edu by holodeck.cc.vt.edu with SMTP
	(8.6.12/16.2) id TAA29127; Mon, 31 Jul 1995 19:13:42 -0400
To: guitar@nevada.edu
Subject: TAB: Clean Sheets - The Descendents (Retry) - cleanshe.tab [1/1]
Date: Mon, 31 Jul 95 18:46:14 PST
X-Mailer: WinVN 0.93.11
Status: O

Hello!
I am sorry about that last message.
My e-mail was incorrectly configured.
This is the Solo for "Clean Sheets" by 
the Descendents off of the album "All"

xpy = x pull off to y
xhy = x hammer on y
xby = x bend to y
xry = play prebent to x and release down to y

e----------------------------------------------
B-----------------------3p1p0h1--3p1p0---------
G----------------4p2h4-------------------------
D---------5p4h5--------------------------------
A--7p5h7---------------------------------------
E----------------------------------------------

e--7r5-3----3-----3----------0--3--2-----0-----
B--------7-----5------3~~~~~----------3------1-
G----------------------------------------------
D----------------------------------------------
A----------------------------------------------
E----------------------------------------------

e-----------2-----3~~--3--2------3-2----7-5-3--
B-0-0--3-3----3-0------------3-------3---------
G----------------------------------------------
D----------------------------------------------
A----------------------------------------------
E----------------------------------------------

e---------------14---------15------------------
B-12-12--15--15----15--12----------------------
G----------------------------------------------
D----------------------------------------------
A----------------------------------------------
E----------------------------------------------

The chords are all power chords.  If anybody feels 
like sending this file back to me with all the 
lyrics attached to the end of it, I will put
chords over the words for them.  Otherwise, it is 
mainly E and D power chords like they play in the 
beginning, or G, B, C power chords like they
play during the verses.

Oh yeah, and play this little thing every 
now and then...
e----8p7----7-----
B--------8--------
G-----------------
D-----------------
A-----------------
E-----------------


Any comments?
Blobbie Pancreas
pancreas@vt.edu

Comments