Desaster - Porter Of Hellgate Chords & Tabs

 

Porter Of Hellgate Chords & Tabs

Desaster Chords & Tabs

Version: 1 Type: Tab 0 ratings
1 star 2 stars 3 stars 4 stars 5 stars
comments

Porter Of Hellgate Tab

Porter of Hellgate
by the band Desaster
from the album: A Touch of Medieval Darkness
Trascription by : P. Mackay
E-Mail address :balsama@mailcity.com

This Tablature was created with Tab Form Creator by Ugo Gasparri
ugo_er_mejo@geocities.com

Tuning: D (1 step down)

Tab Notation
Repeat Measure
p.m.    Palm mute

Riff1 
E-|-------------------------------------------------------------------
B-|-------------------------------------------------------------------
G-|-------------------------------------------------------------------
D-|----------------2--------------------------------------------------
A-|-2-2-3-0--2-2-3----------------------------------------------------
E-|-0--------0--------------------------------------------------------

*
*
*
* Riff2
E-|-------------------------------------------------------------------
B-|-------------------------------------------------------------------
G-|-------------------------------------------------------------------
D-|-------------------0-----------------------2-----------------------
A-|-2-2-3-2-0-2-2-2-3---3--2-2-3-2-0-2--2-2-3-------------------------
E-|-0-----------0----------0------------0-----------------------------

*
*
*                             ----------     ---------
*Riff3                        |1.            |2.
E-|---------------------------|--------------|------------------------
B-|---------------------------|--------------|------------------------
G-|---------------------------|--------------|------------------------
D-|---------------------------|--------------|----3-------------------
A-|-----2-3---3-5--5-7--3-5---|---3-2--------|--5-1-------------------
E-|-0-0-----0----0----0-------|-0-----3------|0-3---------------------
[ Tab from: http://www.guitartabs.cc/tabs/d/desaster/porter_of_hellgate_tab.html ]
*
*
*
* Riff4
E-|-------------------------------------------------------------------
B-|-------------------------------------------------------------------
G-|-------------------------------------------------------------------
D-|-2--2--2-2--2--2-4--4--4-4--4--4-9--9--9-5--5--4-2--2--2-2--2--2---
A-|-------------------------------------------------------------------
E-|--00-00-0-00-00-0-00-00-0-00-00-0-00-00-0-00-00-0-00-00-0-00-00
pm   .. .. . .. .. . .. .. . .. .. . .. .. . .. .. . .. .. . .. ..
*
*
*
*
Riff5 (either power chord riff 4 or play change to this position)
E-|------------------------------------------------------------------
B-|------------------------------------------------------------------
G-|------------------------------------11-11-11----------------------
D-|9--9--9-9--9--9-11-11-11-11--11--11--9--9--9--12--12--11--9--9--9-
A-|7--7--7-7--7--7--9--9--9--9---9---9-----------10--10---9--7--7--7-
E-|-00-00-0-00-00-0--00-00-0--00--00--0--00-00-0---00--00--0--00-00-0
 pm .. .. . .. .. .  .. .. .  ..  ..  .  .. .. .   ..  ..  .  .. .. .
*
*
*
*
E-|-----------------------------------------------------------------
B-|-----------------------------------------------------------------
G-|-----------------------------------------------------------------
D-|9--9--9----------------------------------------------------------
A-|7--7--7----------------------------------------------------------
E-|-00-00-----------------------------------------------------------
    .. ..
*
*
*
*Riff6
E-|------------------|-|-|--------------------------------------
B-|------------------|-|-|--------------------------------------
G-|------------------|-|-|--------------------------------------
D-|-2-2-4-5--2-------|-|-|-----2-2-2/4-5--2---------------------
A-|-2--------2-2-1---|-|-|-----2----------2-2-1-----------------
E-|-0--------0-----2-|-|-|-----0----------0----2----------------

*
*
*
*Riff7 (First 2 times)
E|------------------------------------------------------------------
B|------------------------------------------------------------------
G|------------------------------------------------------------------
D|--------------9------------7-------------------12-----------9-----
A|--7-9--9-10----10-9-7-9-10---10-9----7-9--9-10---12-10-9-10--10-9-7
E|0----0------0----------------------0-----0------------------------
pm...................................................................
*
*
*                                                             ________
*Riff7 (Last 2 Times)                                         |1.
E-|-------------------------------------------------------------------
B-|-------------------------------------------------------------------
G-|-------------------------------------------------------------------
D-|--------------9------------7-------------------12-----------9------
A-|--7-9--9-10----10-9-7-9-10---10-9----7-9--9-10---12-10-9-10--10-9-7
E-|0----0------0----------------------0-----0-------------------------
   .    .      .                      .     .
*
*
*  ___________
*  |2.
E-|-------------------------------------------------------------------
B-|-------------------------------------------------------------------
G-|-------------------------------------------------------------------
D-|-9-----------------------------------------------------------------
A-|---10-9-5-7--------------------------------------------------------
E-|-------------------------------------------------------------------

*
*
*               ____________________    _______________
* Riff8         |1,2,3,5,6,7.           |4.
E-|---------------------------------------------------------
B-|---------------------------------------------------------
G-|---------------------------------------------------------
D-|-----9-----8-----9---8---11---10----------------------2--
A-|--------------------------------------2-2-4-4-5-5-4-4-2--
E-|-0-0---0-0---0-0---0---0----0---------0-0-2-2-3-3-2-2-0--
                                         . . . . . . . .
*
*
*   ________________
*   |8.
E-|------------------------------------------------------------------
B-|------------------------------------------------------------------
G-|------------------------------------------------------------------
D-|------------------2--2--2-----------------------------------------
A-|--2-2-4-4-5-5-4-4-2--2--2-----------------------------------------
E-|--0-0-2-2-3-3-2-2-0--0--0-----------------------------------------
     . . . . . . . . .  .

* That's all.  Tell your friends to buy this album! It totally shreds
  (as this song shows:)!!!  Hope it's correct.  Let me know.

______________________________________________________
Get Your Private, Free Email at http://www.hotmail.com
Comments