Derozer - No Surf Chords & Tabs

 

No Surf Chords & Tabs

Derozer Chords & Tabs

Version: 1 Type: Tab 0 ratings
1 star 2 stars 3 stars 4 stars 5 stars
comments

No Surf Tab

Verse:                     x2
E|----------------------------|
B|----------------------------|
G|----------------------------|
D|--------2-----5------7------|
A|--5-----2-----3------5------|
E|--3-----0-------------------|
verse 2:                              x2
E|--------------------------------------|
B|--------------------------------------|
G|--------------------------------------|
D|----5-3-2--5--5-3-2----5-3-2--5---7---|
A|--5--------3--------5---------3---5---|
E|--3-----------------3-----------------|

verse   x2
verse 2 x1
verse   x4
verse 2 x2
[ Tab from: http://www.guitartabs.cc/tabs/d/derozer/no_surf_tab.html ]
verse 3:                             x2
E|-------------|------------------------|
B|-------------|------------------------|
G|-------------|--------7---------------|
D|--5-x2--7-x2-|--5--7--5--9------------|
A|--3-----5----|--3--5-----7------------|
E|-------------|------------------------|
                                      x2
E|--------------------------------------|
B|--------------------------------------|
G|--------------7-x7--------------------|
D|--5-x7--7-x7--5----9-x7---------------|
A|--3-----5----------7------------------|
E|--------------------------------------|

E|------------------------|
B|------------------------|
G|------------------------|
D|--5---7-----------------|
A|--3---5-----------------|
E|------------------------|

verse x4\5
Comments