Derek And The Dominos - Layla Chords & Tabs

 

Layla Chords & Tabs

Derek And The Dominos Chords & Tabs

Version: 2 Type: Tab

Layla Tab

-----------11--14----------11--11--16--14--13---------------
---11--14----------11--14-----------------------------------
------------------------------------------------------------
------------------------------------------------------------
------------------------------------------------------------
------------------------------------------------------------

-----------11--14----------11--11--18--16--13---------------
---11--14----------11--14-----------------------------------
------------------------------------------------------------
------------------------------------------------------------
------------------------------------------------------------
------------------------------------------------------------
[ Tab from: http://www.guitartabs.cc/tabs/d/derek_and_the_dominos/layla_tab_ver_2.html ]