Derek And The Dominos - Layla Chords & Tabs

 

Derek And The Dominos Chords & Tabs

Version: 1 Type: Tab 1 rating
1 star 2 stars 3 stars 4 stars 5 stars
comments

Layla Tab

   
Derek and the Domino`s
Layla

Gtr I (E A D G B E) - 'Untitled'
Gtr II (E A D G B E) - 'Untitled'
Gtr III (E A D G B E) - 'Untitled'
Gtr IV (E A D G B E) - 'Untitled'

 Intro
  Q=116
       N.C.               D5C5Bb5F/A C5
 4/4
      Gtr I
|---------------------|----------------|
|---------------------|----------------|
|---------------------|----------------|
|-----------0h=3p0----|-0--------------|
|------0h=3---------3-|----------------|
|---------------------|----------------|
|
|     Gtr II
|---------------------|----------------|
|---------------------|----------------|
|-----------7h10p7----|-7--------------|
|------7h10--------10-|----------------|
|---------------------|----------------|
|---------------------|----------------|
|
|     Gtr III
|---------------------|----------------|
|---------------------|----------------|
|---------------------|----------------|
|-----------0h=3p0----|-0-7s5-3--3---5-|
|------0h=3---------3-|---5s3-1--0---3-|
|---------------------|------------3---|


      A7  D5    N.C.               D5C5Bb5F/A C5
|------------------------------|-----------------|
|------------------------------|-----------------|
|------------------------------|-----------------|
|-(0)-------(0)------0h=3p0----|-0---------------|
|---------------0h=3---------3-|-----------------|
|------------------------------|-----------------|
|
|------------------------------|-----------------|
|------------------------------|-----------------|
|-(7)-------(7)------7h10p7----|-7---------------|
|---------------7h10--------10-|-----------------|
|------------------------------|-----------------|
|------------------------------|-----------------|
|
|------------------------------|-----------------|
|------------------------------|-----------------|
|------------------------------|-----------------|
|-(5)-5---7----------0h=3p0----|-0-7s5-3--3---5--|
|-(3)-0---5-----0h=3---------3-|---5s3-1--0---3--|
|-------3----------------------|------------3----|


      A7  D5    N.C.                   D5C5Bb5    F/A  C5
|---------------------10h13p10----|-10-----13b15--13---12-|
|---------------10h13----------13-|-----------------------|
|---------------------------------|-----------------------|
|-(0)-------(0)-------------------|-----------------------|
|---------------------------------|-----------------------|
|---------------------------------|-----------------------|
|
|---------------------------------|-----------------------|
|---------------------------------|-----------------------|
|-(7)-------(7)--------7h10p=7----|--7--------------------|
|----------------7h10----------10-|-----------------------|
|---------------------------------|-----------------------|
|---------------------------------|-----------------------|
|
|---------------------------------|-----------------------|
|---------------------------------|-----------------------|
|---------------------------------|-----------------------|
|-(5)-5---7------------0h=3p=0----|--0-7s5--3------3----5-|
|-(3)-0---5------0h=3-----------3-|----5s3--1------0----3-|
|-------3-------------------------|------------------3----|


       A7   D5     N.C.                   D5C5Bb5    F/A  C5
|-(12)------10-----------10h13p10----|-10-----15b17--15---12-|
|------13----------10h13----------13-|-----------------------|
|------------------------------------|-----------------------|
|------------------------------------|-----------------------|
|------------------------------------|-----------------------|
|------------------------------------|-----------------------|
|
|------------------------------------|-----------------------|
|------------------------------------|-----------------------|
|--(7)---------(7)--------7h10p=7----|--7--------------------|
|-------------------7h10----------10-|-----------------------|
|------------------------------------|-----------------------|
|------------------------------------|-----------------------|
|
|------------------------------------|-----------------------|
|------------------------------------|-----------------------|
|------------------------------------|-----------------------|
|--(5)--5----7------------0h=3p=0----|--0-7s5--3------3----5-|
|--(3)--0----5------0h=3-----------3-|----5s3--1------0----3-|
|---------3--------------------------|------------------3----|


       A7   D5     N.C.                   D5C5       F/A  C5
|-(12)------10-----------10h13p10----|-10-----13b15--13---12-|
|------13----------10h13----------13-|-----------------------|
|------------------------------------|-----------------------|
|------------------------------------|-----------------------|
|------------------------------------|-----------------------|
|------------------------------------|-----------------------|
|
|------------------------------------|-----------------------|
|------------------------------------|-----------------------|
|--(7)---------(7)--------7h10p=7----|--7--------------------|
|-------------------7h10----------10-|-----------------------|
|------------------------------------|-----------------------|
|------------------------------------|-----------------------|
|
|------------------------------------|-----------------------|
|------------------------------------|-----------------------|
|------------------------------------|-----------------------|
|--(5)--5----7------------0h=3p=0----|--0-7s5--3------3----5-|
|--(3)--0----5------0h=3-----------3-|----5s3--1------0----3-|
|---------3--------------------------|------------------3----|


       A7   D5     N.C.                   D5C5Bb5    F/A  C5        A7
                                                              2/4
|-(12)------10-----------10h13p10----|-10-----15b17--15---12-|-(12)----------------||
|------13----------10h13----------13-|-----------------------|------13---13b15=====||
|------------------------------------|-----------------------|---------------------||
|------------------------------------|-----------------------|---------------------||
|------------------------------------|-----------------------|---------------------||
|------------------------------------|-----------------------|---------------------||
|
|------------------------------------|-----------------------|---------------------||
|------------------------------------|-----------------------|---------------------||
|--(7)---------(7)--------7h10p=7----|--7--------------------|--(7)----------------||
|-------------------7h10----------10-|-----------------------|---------------------||
|------------------------------------|-----------------------|---------------------||
|------------------------------------|-----------------------|---------------------||
|
|------------------------------------|-----------------------|---------------------||
|------------------------------------|-----------------------|---------------------||
|------------------------------------|-----------------------|---------------------||
|--(5)--5----7------------0h=3p=0----|--0-7s5--3------3----5-|--(5)--5-------------||
|--(3)--0----5------0h=3-----------3-|----5s3--1------0----3-|--(3)--0-------------||
|---------3--------------------------|------------------3----|---------3-----------||


 Verse
  C#m                               G#m
 4/4
  Gtr I
                                     ~~~~~
|---------------------------------|------------------------------|
|-(13)-----(13)r-----12b14r(12)p9-|-11b12-------------11b12r11p9-|
|---------------------------------|------------------------------|
|---------------------------------|------------------------------|
|---------------------------------|------------------------------|
|---------------------------------|------------------------------|
|
| Gtr III
|---------------------------------|------------------------------|
|---5---5----5--------------------|------------------------------|
|---4---4----4------------------4-|---------4-4-4------4-------4-|
|---6---6----6--------6---------4-|---------4-4-4---4--4-------4-|
|---4---4----4---4-4--4---------6-|-------6-6-6-6-6----6-----6---|
|---------------------------------|--4----4----------------------|


  C#m7               C7        D7       E7
                     ~~~~~~
|-------------------------------------|----------12-(12)-----------------------|
|-------------------------------------|----------12-(12)-----------------------|
|-11b13---11b13r(11)p9-(9)-----11-----|-11b13========11r(11)p9---11---9--------|
|-------------------------------------|---------------------------------9h=11--|
|-------------------------------------|----------------------------------------|
|-------------------------------------|----------------------------------------|
|
|-------------------------------------|----------------------------------------|
|--5-------5------------5--5-5--7-7-7-|-----------9----------9-9----9-9--------|
|--4-------4------------3--3-3--5-5-5-|-----------7----------7-7----7-7--------|
|--6-------6------------5--5-5--7-7-7-|--------9--9----------9-9----9-9-9\-----|
|-------4---------4-----3--3-3--5-5-5-|--7-----7-------------------------------|
|-------------------------------------|----------------------------------------|


  F#m           B                 E              A
|-------------------------------|-----------------------------------------------|
|-----9-------------------------|--------12-------------------------------------|
|-9-9---11------9-9------9---11-|-11b13=======11r(11)-(11)-9--------------------|
|----------11-------11----------|----------------------------9h11-(11)-------11-|
|-------------------------------|-----------------------------------------------|
|-------------------------------|-----------------------------------------------|
|
|-----4p=2----------------------|--------------2p==0----------------------------|
|-----2-----2----------4--------|---------0-0-----------0--0--------------------|
|---2---------2--------4--------|---------1-1-----------1--1--------------------|
|-4------------------4---6p4----|---------2-2-----------2--2-2------2--4p2------|
|---------------4S6-----------6-|----------------------------0-------------4----|
|-------------------------------|--0--------------------------------------------|


  F#m              B                          E
                                             2/4
                                              ~
|-------------------------------------------|-----------||
|-------------------------------------------|-----------||
|------9-9h11p9----9-11b13r(11)---11-9------|-9---------||
|-9h11----------11---------------------11---|-----------||
|-------------------------------------------|-----------||
|-------------------------------------------|-----------||
|
|-----------2-2-----------------------------|-----------||
|-----------2-2-----------------------------|-----------||
|-----------2-2--------------------4-4----x-|-1---1-1---||
|------4------------------------4--4-4----x-|-2-x-2-2---||
|---------------------2------2-----2----2---|-2-x-2-2---||
|-2-----------------------------------------|-0-----0---||


 Chorus
  N.C.                       D5C5Bb5    F/A  C5
 2/4                     4/4
  Gtr I
|-----------10h13p10----|-10-----13b15--13---12-|
|-----10h13----------13-|-----------------------|
|-(9)-------------------|-----------------------|
|-----------------------|-----------------------|
|-----------------------|-----------------------|
|-----------------------|-----------------------|
|
| Gtr II
|-----------------------|-----------------------|
|-----------------------|-----------------------|
|------------7h10p=7----|--7--------------------|
|------7h10----------10-|-----------------------|
|-----------------------|-----------------------|
|-----------------------|-----------------------|
|
| Gtr III
|-----------------------|-----------------------|
|-----------------------|-----------------------|
|-----------------------|-----------------------|
|------------0h=3p=0----|--0-7s5--3------3----5-|
|--0---0h=3-----------3-|----5s3--1------0----3-|
|-----------------------|------------------3----|


       A7   D5     N.C.                   D5C5Bb5    F/A  C5
|-(12)------10-----------10h13p10----|-10-----15b17--15---12--|
|------13----------10h13----------13-|------------------------|
|------------------------------------|------------------------|
|------------------------------------|------------------------|
|------------------------------------|------------------------|
|------------------------------------|------------------------|
|
|------------------------------------|------------------------|
|------------------------------------|------------------------|
|--(7)---------(7)--------7h10p=7----|--7---------------------|
|-------------------7h10----------10-|------------------------|
|------------------------------------|------------------------|
|------------------------------------|------------------------|
|
|------------------------------------|------------------------|
|------------------------------------|------------------------|
|------------------------------------|------------------------|
|--(5)--5----7------------0h=3p=0----|--0-7s5--3------3----5--|
|--(3)--0----5------0h=3-----------3-|----5s3--1------0----3--|
|---------3--------------------------|------------------3-----|


       A7   D5     N.C.                   D5C5Bb5    F/A  C5
|-(12)------10-----------10h13p10----|-10-----13b15--13---12-|
|------13----------10h13----------13-|-----------------------|
|------------------------------------|-----------------------|
|------------------------------------|-----------------------|
|------------------------------------|-----------------------|
|------------------------------------|-----------------------|
|
|------------------------------------|-----------------------|
|------------------------------------|-----------------------|
|--(7)---------(7)--------7h10p=7----|--7--------------------|
|-------------------7h10----------10-|-----------------------|
|------------------------------------|-----------------------|
|------------------------------------|-----------------------|
|
|------------------------------------|-----------------------|
|------------------------------------|-----------------------|
|------------------------------------|-----------------------|
|--(5)--5----7------------0h=3p=0----|--0-7s5--3------3----5-|
|--(3)--0----5------0h=3-----------3-|----5s3--1------0----3-|
|---------3--------------------------|------------------3----|


       A7   D5     N.C.                   D5C5Bb5    F/A  C5        A7
                                                              2/4
|-(12)------10-----------10h13p10----|-10-----15b17--15---12-|-(12)---------------||
|------13----------10h13----------13-|-----------------------|------13---12b14----||
|------------------------------------|-----------------------|--------------------||
|------------------------------------|-----------------------|--------------------||
|------------------------------------|-----------------------|--------------------||
|------------------------------------|-----------------------|--------------------||
|
|------------------------------------|-----------------------|--------------------||
|------------------------------------|-----------------------|--------------------||
|--(7)---------(7)--------7h10p=7----|--7--------------------|--(7)---------------||
|-------------------7h10----------10-|-----------------------|--------------------||
|------------------------------------|-----------------------|--------------------||
|------------------------------------|-----------------------|--------------------||
|
|------------------------------------|-----------------------|--------------------||
|------------------------------------|-----------------------|--------------------||
|------------------------------------|-----------------------|--------------------||
|--(5)--5----7------------0h=3p=0----|--0-7s5--3------3----5-|--(5)--5------------||
|--(3)--0----5------0h=3-----------3-|----5s3--1------0----3-|--(3)--0------------||
|---------3--------------------------|------------------3----|---------3----------||


 Verse
  C#m                           G#m
 4/4
  Gtr I
                                 ~~~~~
|-----------------------------|--------------------------------|
|-(12)-----------12b14r(12)p9-|-11b12-------------11b12r(11)p9-|
|-----------------------------|--------------------------------|
|-----------------------------|--------------------------------|
|-----------------------------|--------------------------------|
|-----------------------------|--------------------------------|
|
| Gtr III
|-----------------------------|--------------------------------|
|---5---5--5------------------|--------------------------------|
|---4---4--4----------------4-|---------4-4-4------4---------4-|
|---6---6--6------6---------4-|---------4-4-4---4--4---------4-|
|---4---4--4-4-4--4---------6-|-------6-6-6-6-6----6------6----|
|-----------------------------|--4----4------------------------|


  C#m7                 C7    D7       E7
                     ~~~~
|-----------------------------------|--------12-----------------------------|
|-----------------------------------|--------12-----------------------------|
|-11b13====(11)r(11)-9-9-----11-----|-11b13=====11r(11)p9-11p9----9-9-------|
|-----------------------------------|--------------------------11-----11----|
|-----------------------------------|---------------------------------------|
|-----------------------------------|---------------------------------------|
|
|-----------------------------------|---------------------------------------|
|--5---------5---------5-5-5--7-7-7-|------------9---------9-9----9-9-------|
|--4---------4---------3-3-3--5-5-5-|------------7---------7-7----7-7-------|
|--6---------6---------5-5-5--7-7-7-|---------9--9---------9-9----9-9--9\---|
|--------4--------4----3-3-3--5-5-5-|--7------7-----------------------------|
|-----------------------------------|---------------------------------------|


  F#m             B                    E         A
|------------------------------------|----------------------------------------------|
|------------------------------------|----------------------------------------------|
|------9-9------------------9-9------|------9-11-9-11-11b13r(11)---9-11----9--------|
|-9h11-------11---9h11-(11)-------11-|-9h11-----------------------------11-------11-|
|------------------------------------|----------------------------------------------|
|------------------------------------|----------------------------------------------|
|
|--------4p2-------------------------|-----------2p=0-------------------------------|
|--------2----2-------------4--------|------0--0-------0------0---------------------|
|------2--------2-----------4--------|------1--1-------1------1---------------------|
|-4----------------------4----6p4----|------2--2-------2------2--2-------2-4p2------|
|-----------------4S=6-------------6-|---------------------------0-------------4----|
|------------------------------------|-0--------------------------------------------|


  F#m                   B                            E
                                                    2/4
|--------------------------------------------------|------------||
|--------------------------------------------------|------------||
|------9-11b13=====(11)r(11)-9---11b13====(11)r-11-|-9----------||
|-9h11---------------------------------------------|------------||
|--------------------------------------------------|------------||
|--------------------------------------------------|------------||
|
|---------2-----2----------------------------------|------------||
|---------2-----2----------------------------------|------------||
|---------2-----2-----------------4-----4--------x-|-1---1-1----||
|------4-----------------------4--4-----4--------x-|-2-x-2-2----||
|--------------------2-------2----2---------2------|-2-x-2-2----||
|-2------------------------------------------------|-0-----0----||


 Chorus
  N.C.                       D5C5Bb5    F/A  C5
                         4/4
  Gtr I
|-----------10h13p10----|-10-----13b15--13---12-|
|-----10h13----------13-|-----------------------|
|-(9)-------------------|-----------------------|
|-----------------------|-----------------------|
|-----------------------|-----------------------|
|-----------------------|-----------------------|
|
| Gtr II
|-----------------------|-----------------------|
|-----------------------|-----------------------|
|------------7h10p=7----|--7--------------------|
|------7h10----------10-|-----------------------|
|-----------------------|-----------------------|
|-----------------------|-----------------------|
|
| Gtr III
|-----------------------|-----------------------|
|-----------------------|-----------------------|
|-----------------------|-----------------------|
|------------0h=3p=0----|--0-7s5--3------3----5-|
|--0---0h=3-----------3-|----5s3--1------0----3-|
|-----------------------|------------------3----|


       A7   D5     N.C.                   D5C5Bb5    F/A  C5
|-(12)------10-----------10h13p10----|-10-----15b17--15---12-|
|------13----------10h13----------13-|-----------------------|
|------------------------------------|-----------------------|
|------------------------------------|-----------------------|
|------------------------------------|-----------------------|
|------------------------------------|-----------------------|
|
|------------------------------------|-----------------------|
|------------------------------------|-----------------------|
|--(7)---------(7)--------7h10p=7----|--7--------------------|
|-------------------7h10----------10-|-----------------------|
|------------------------------------|-----------------------|
|------------------------------------|-----------------------|
|
|------------------------------------|-----------------------|
|------------------------------------|-----------------------|
|------------------------------------|-----------------------|
|--(5)--5----7------------0h=3p=0----|--0-7s5--3------3----5-|
|--(3)--0----5------0h=3-----------3-|----5s3--1------0----3-|
|---------3--------------------------|------------------3----|


       A7   D5     N.C.                   D5C5Bb5    F/A  C5
|-(12)------10-----------10h13p10----|-10-----13b15--13---12-|
|------13----------10h13----------13-|-----------------------|
|------------------------------------|-----------------------|
|------------------------------------|-----------------------|
|------------------------------------|-----------------------|
|------------------------------------|-----------------------|
|
|------------------------------------|-----------------------|
|------------------------------------|-----------------------|
|--(7)---------(7)--------7h10p=7----|--7--------------------|
|-------------------7h10----------10-|-----------------------|
|------------------------------------|-----------------------|
|------------------------------------|-----------------------|
|
|------------------------------------|-----------------------|
|------------------------------------|-----------------------|
|------------------------------------|-----------------------|
|--(5)--5----7------------0h=3p=0----|--0-7s5--3------3----5-|
|--(3)--0----5------0h=3-----------3-|----5s3--1------0----3-|
|---------3--------------------------|------------------3----|


       A7   D5     N.C.                   D5C5Bb5    F/A  C5        A7
                                                              2/4
|-(12)------10-----------10h13p10----|-10-----15b17--15---12-|-(12)---------------||
|------13----------10h13----------13-|-----------------------|------13---12b14----||
|------------------------------------|-----------------------|--------------------||
|------------------------------------|-----------------------|--------------------||
|------------------------------------|-----------------------|--------------------||
|------------------------------------|-----------------------|--------------------||
|
|------------------------------------|-----------------------|--------------------||
|------------------------------------|-----------------------|--------------------||
|--(7)---------(7)--------7h10p=7----|--7--------------------|--(7)---------------||
|-------------------7h10----------10-|-----------------------|--------------------||
|------------------------------------|-----------------------|--------------------||
|------------------------------------|-----------------------|--------------------||
|
|------------------------------------|-----------------------|--------------------||
|------------------------------------|-----------------------|--------------------||
|------------------------------------|-----------------------|--------------------||
|--(5)--5----7------------0h=3p=0----|--0-7s5--3------3----5-|--(5)--5------------||
|--(3)--0----5------0h=3-----------3-|----5s3--1------0----3-|--(3)--0------------||
|---------3--------------------------|------------------3----|---------3----------||


 Verse
  C#m                           G#m
 4/4
  Gtr I
                                 ~~~~~
|-----------------------------|--------------------------------|
|-(12)-----------12b14r(12)p9-|-11b12-------------11b12r(11)p9-|
|-----------------------------|--------------------------------|
|-----------------------------|--------------------------------|
|-----------------------------|--------------------------------|
|-----------------------------|--------------------------------|
|
| Gtr III
|-----------------------------|--------------------------------|
|---5---5--5------------------|--------------------------------|
|---4---4--4----------------4-|---------4-4-4------4---------4-|
|---6---6--6------6---------4-|---------4-4-4---4--4---------4-|
|---4---4--4-4-4--4---------6-|-------6-6-6-6-6----6------6----|
|-----------------------------|--4----4------------------------|


  C#m7                 C7    D7       E7
                     ~~~~
|-----------------------------------|----------------12-------------------------|
|-----------------------------------|-------------------------------------------|
|-11b13====(11)r(11)-9-9-----11-----|-11b13---11b13=====11r(11)p9------9--------|
|-----------------------------------|-----------------------------11-----11--9--|
|-----------------------------------|-------------------------------------------|
|-----------------------------------|-------------------------------------------|
|
|-----------------------------------|-------------------------------------------|
|--5---------5---------5-5-5--7-7-7-|----------9-------------9--9----9-9--------|
|--4---------4---------3-3-3--5-5-5-|----------7-------------7--7----7-7--------|
|--6---------6---------5-5-5--7-7-7-|-------9--9-------------9--9----9-9--9\----|
|--------4--------4----3-3-3--5-5-5-|--7----7-----------------------------------|
|-----------------------------------|-------------------------------------------|


  F#m             B                      E                    A
|--------------------------------------|--------x----------------------------------|
|--------------------------------------|-------------------------------------------|
|------9-9------------------9-9------9-|-11b13======11r(11)-9-9h11p9----9-9------9-|
|-9h11-------11---9h11-(11)-------11---|-----------------------------11-------11---|
|--------------------------------------|-------------------------------------------|
|--------------------------------------|-------------------------------------------|
|
|--------4p2---------------------------|-------------2p==0-------------------------|
|--------2----2-------------4----------|--------0-0---------0-0--------------------|
|------2--------2-----------4----------|--------1-1---------1-1--------------------|
|-4----------------------4----6p4------|--------2-2---------2-2--2------2-4p2------|
|-----------------4S=6-------------6---|-------------------------0-------------4---|
|--------------------------------------|--0----------------------------------------|


  F#m                    B               E
                                        2/4
                                         ~
|--------------------------------------|------------||
|-------12-----------------------------|------------||
|-11s13----13s11----9-11----9-11---9-9-|-9----------||
|------------------------11------------|------------||
|--------------------------------------|------------||
|--------------------------------------|------------||
|
|--------------2-2---------------------|------------||
|--------------2-2---------------------|------------||
|--------------2-2-------------4-4---x-|-1---1-1----||
|--------4------------------4--4-4---x-|-2-x-2-2----||
|----------------------2--2----2---2---|-2-x-2-2----||
|--2-----------------------------------|-0-----0----||


  N.C.                       D5C5Bb5    F/A  C5        A7   D5     N.C.
                         4/4
  Gtr I
|-----------10h13p10----|-10-----13b15--13---12-|-(12)------10-----------10h13p10----|
|-----10h13----------13-|-----------------------|------13----------10h13----------13-|
|-(9)-------------------|-----------------------|------------------------------------|
|-----------------------|-----------------------|------------------------------------|
|-----------------------|-----------------------|------------------------------------|
|-----------------------|-----------------------|------------------------------------|
|
| Gtr II
|-----------------------|-----------------------|------------------------------------|
|-----------------------|-----------------------|------------------------------------|
|------------7h10p=7----|--7--------------------|--(7)---------(7)--------7h10p=7----|
|------7h10----------10-|-----------------------|-------------------7h10----------10-|
|-----------------------|-----------------------|------------------------------------|
|-----------------------|-----------------------|------------------------------------|
|
| Gtr III
|-----------------------|-----------------------|------------------------------------|
|-----------------------|-----------------------|------------------------------------|
|-----------------------|-----------------------|------------------------------------|
|------------0h=3p=0----|--0-7s5--3------3----5-|--(5)--5----7------------0h=3p=0----|
|--0---0h=3-----------3-|----5s3--1------0----3-|--(3)--0----5------0h=3-----------3-|
|-----------------------|------------------3----|---------3--------------------------|


     D5C5Bb5    F/A  C5        A7   D5     N.C.
|-10-----15b17--15---12-|-(12)------10-----------10h13p10----|
|-----------------------|------13----------10h13----------13-|
|-----------------------|------------------------------------|
|-----------------------|------------------------------------|
|-----------------------|------------------------------------|
|-----------------------|------------------------------------|
|
|-----------------------|------------------------------------|
|-----------------------|------------------------------------|
|--7--------------------|--(7)---------(7)--------7h10p=7----|
|-----------------------|-------------------7h10----------10-|
|-----------------------|------------------------------------|
|-----------------------|------------------------------------|
|
|-----------------------|------------------------------------|
|-----------------------|------------------------------------|
|-----------------------|------------------------------------|
|--0-7s5--3------3----5-|--(5)--5----7------------0h=3p=0----|
|----5s3--1------0----3-|--(3)--0----5------0h=3-----------3-|
|------------------3----|---------3--------------------------|


   Chorus - Guitar Solo
       D5C5Bb5    F/A  C5        A7   D5     N.C.
||--10-----13b15--13---12-|-(12)------10-----------10h13p10----|
||o-----------------------|------13----------10h13----------13-|
||------------------------|------------------------------------|
||------------------------|------------------------------------|
||o-----------------------|------------------------------------|
||------------------------|------------------------------------|
|
||------------------------|------------------------------------|
||o-----------------------|------------------------------------|
||---7--------------------|--(7)---------(7)--------7h10p=7----|
||------------------------|-------------------7h10----------10-|
||o-----------------------|------------------------------------|
||------------------------|------------------------------------|
|
||------------------------|------------------------------------|
||o-----------------------|------------------------------------|
||------------------------|------------------------------------|
||---0-7s5--3------3----5-|--(5)--5----7------------0h=3p=0----|
||o----5s3--1------0----3-|--(3)--0----5------0h=3-----------3-|
||-------------------3----|---------3--------------------------|


     D5C5Bb5    F/A  C5        A7   D5     N.C.
                                                                8x
|-10-----15b17--15---12-|-(12)------10-----------10h13p10-------||
|-----------------------|------13----------10h13----------13---o||
|-----------------------|---------------------------------------||
|-----------------------|---------------------------------------||
|-----------------------|--------------------------------------o||
|-----------------------|---------------------------------------||
|
|                                                               8x
|-----------------------|---------------------------------------||
|-----------------------|--------------------------------------o||
|--7--------------------|--(7)---------(7)--------7h10p=7-------||
|-----------------------|-------------------7h10----------10----||
|-----------------------|--------------------------------------o||
|-----------------------|---------------------------------------||
|
|                                                               8x
|-----------------------|---------------------------------------||
|-----------------------|--------------------------------------o||
|-----------------------|---------------------------------------||
|--0-7s5--3------3----5-|--(5)--5----7------------0h=3p=0-------||
|----5s3--1------0----3-|--(3)--0----5------0h=3-----------3---o||
|------------------3----|---------3-----------------------------||


     D5C5Bb5    F/A  C5        A7   D5     N.C.
|-10-----13b15--13---12-|-(12)------10-----------10h13p10----|
|-----------------------|------13----------10h13----------13-|
|-----------------------|------------------------------------|
|-----------------------|------------------------------------|
|-----------------------|------------------------------------|
|-----------------------|------------------------------------|
|
|-----------------------|------------------------------------|
|-----------------------|------------------------------------|
|--7--------------------|--(7)---------(7)--------7h10p=7----|
|-----------------------|-------------------7h10----------10-|
|-----------------------|------------------------------------|
|-----------------------|------------------------------------|
|
|-----------------------|------------------------------------|
|-----------------------|------------------------------------|
|-----------------------|------------------------------------|
|--0-7s5--3------3----5-|--(5)--5----7------------0h=3p=0----|
|----5s3--1------0----3-|--(3)--0----5------0h=3-----------3-|
|------------------3----|---------3--------------------------|


     D5C5Bb5    F/A  C5        A7
                                               >
|-10-----15b17--15---12-|-(12)-------------|---------||
|-----------------------|------13----------|-(13)----||
|-----------------------|------------------|---------||
|-----------------------|------------------|---------||
|-----------------------|------------------|---------||
|-----------------------|------------------|---------||
|
|                                              >
|-----------------------|------------------|---------||
|-----------------------|------------------|---------||
|--7--------------------|--(7)-------------|---------||
|-----------------------|------10----------|-(10)----||
|-----------------------|------------------|---------||
|-----------------------|------------------|---------||
|
|                                              >
|-----------------------|------------------|---------||
|-----------------------|------------------|---------||
|-----------------------|------------------|---------||
|--0-7s5--3------3----5-|--(5)--5-(5)------|--(5)----||
|----5s3--1------0----3-|--(3)--0-(0)------|--(0)----||
|------------------3----|------------------|---------||


 Bridge
  Q=110
|-----||
|-----||
|-----||
|-----||
|-----||
|-----||


 Outro Solo
  C                      C/E
  Gtr I
|----------------------|-----------------------|
|-18s20---20-20-----22-|--20----20-(20)-----20-|
|----------------------|-----------------------|
|----------------------|-----------------------|
|----------------------|-----------------------|
|----------------------|-----------------------|
|
| Gtr II
|----------------------|-----------------------|
|-18s20----------18-17-|-(17)------------------|
|----------------------|-----------------17----|
|----------------------|-----------------------|
|----------------------|-----------------------|
|----------------------|-----------------------|

[ Tab from: http://www.guitartabs.cc/tabs/d/derek_and_the_dominos/layla_tab.html ]
  F
|-----------------------------|----------------------|
|--18s=20s=18--18-----(18)s17-|-17--(17)s15-15s=13---|
|-----------------------------|----------------------|
|-----------------------------|----------------------|
|-----------------------------|----------------------|
|-----------------------------|----------------------|
|
|-----------------------------|----------------------|
|-----------------------------|----------------------|
|-(17)s19-----(19)s21-(21)s===|=17-------------------|
|-----------------------------|----------------------|
|-----------------------------|----------------------|
|-----------------------------|----------------------|


  Bb7
|-----------------|-------------------------|
|-13s15s=13-13----|-13s15s===13-13s18s===17-|
|-----------------|-------------------------|
|-----------------|-------------------------|
|-----------------|-------------------------|
|-----------------|-------------------------|
|
|-----------------|-------------------------|
|-----------------|-------18s17-------------|
|-----------------|----17-------17-------17-|
|-----------------|-------------------17----|
|-----------------|-------------------------|
|-----------------|-------------------------|


  C
|----------------|----------------------|
|--------------5-|--6s5------6s=5-------|
|--17--------5---|--------5-------------|
|----------------|----------------------|
|----------------|----------------------|
|----------------|----------------------|
|
|-----------10s==|=20----20s22s20-20s22-|
|----------------|----------------------|
|-(17)-----------|----------------------|
|----------------|----------------------|
|----------------|----------------------|
|----------------|----------------------|


                   C/E
|----------------|-----------------------|
|--6s=8----------|-----5s6s======5--5----|
|----------------|-----------------------|
|----------------|-----------------------|
|----------------|-----------------------|
|----------------|-----------------------|
|
|-20s22----20----|-17s19---(19)s17-17----|
|----------------|-----------------------|
|----------------|-----------------------|
|----------------|-----------------------|
|----------------|-----------------------|
|----------------|-----------------------|


  F
|--------------------|--------------------------|
|-----5s6-(6)--------|-----5s6s======5----------|
|---------------5----|------------------7s5-5s7-|
|--------------------|--------------------------|
|--------------------|--------------------------|
|--------------------|--------------------------|
|
|--------------------|--------------------------|
|-17s18--------17----|--------------------------|
|--------------------|-17s19---(19)s17-17-------|
|--------------------|--------------------------|
|--------------------|--------------------------|
|--------------------|--------------------------|


  Bb7
|-----------------------|------------------|
|-----------------------|------------------|
|-----5s7----(7)----5s7-|--5s=7--------5s7-|
|-----------------------|------------------|
|-----------------------|------------------|
|-----------------------|------------------|
|
|-----------------------|------------------|
|-----------------------|------------------|
|-17s19-----(19)s21-----|-21s22----21s=====|
|-----------------------|------------------|
|-----------------------|------------------|
|-----------------------|------------------|


  C
|---------------------|---------10s=8s=7----|
|----------------5----|---------------------|
|--5------------------|---------------------|
|---------------------|---------------------|
|---------------------|---------------------|
|---------------------|---------------------|
|
|---------------------|---------------------|
|---------------------|---------17s18-17----|
|-17s19-(19)s17-17----|-(17)-17-------------|
|---------------------|---------------------|
|---------------------|---------------------|
|---------------------|---------------------|


  Am                    Dm
|---------------------|-----------------------|
|---------------------|-----------------------|
|------------------7--|-5s10-----------7------|
|---------------------|-----------------------|
|---------------------|-----------------------|
|---------------------|-----------------------|
|
|---------------------|-----------------------|
|-17s20----(20)s22----|---17s18-(18)--17------|
|---------------------|-------------------17--|
|---------------------|-----------------------|
|---------------------|-----------------------|
|---------------------|-----------------------|


  G                        C
|------------------------|----------------|
|------------------------|------------17--|
|-4s==5------(5)s4--4----|-17------17-----|
|------------------------|----------------|
|------------------------|----------------|
|------------------------|----------------|
|
|------------------------|----------------|
|------------------------|------------17--|
|---(17)s19-(19)---16----|-17------17-----|
|------------------------|----------------|
|------------------------|----------------|
|------------------------|----------------|


  Am                Dm
|-----------------|-------------------|
|-----------------|-------------------|
|-----------------|-------------------|
|-----------------|-------------------|
|-----------------|-------------------|
|-----------------|-------------------|
|
|-22---(22)s19----|-------------------|
|-----------------|-17s18-(18)--17----|
|-----------------|-------------------|
|-----------------|-------------------|
|-----------------|-------------------|
|-----------------|-------------------|


  G
|------------------------|--------------------------|
|------------------------|-12s13s12----12s13s12-----|
|--4s===5s==4s=5s=4s5s4--|----------12----------12--|
|------------------------|--------------------------|
|------------------------|--------------------------|
|------------------------|--------------------------|
|
|------------------------|--------------------------|
|------------------------|--------------------------|
|-17s19---(19)---17------|-16s17s16s17s16s17s16s17--|
|------------------------|--------------------------|
|------------------------|--------------------------|
|------------------------|--------------------------|


  C                       C/E
  Gtr I
|-----------------------|----------------------------|
|-13--------------------|------------------------12--|
|-------------9s=====10-|-10s12----------(12)-12-----|
|-----------------------|----------------------------|
|-----------------------|----------------------------|
|-----------------------|----------------------------|
|
| Gtr II
|-20----20s22---(22)----|----22s24-(24)---25---------|
|-----------------------|----------------------------|
|-----------------------|----------------------------|
|-----------------------|----------------------------|
|-----------------------|----------------------------|
|-----------------------|----------------------------|


  F
|------------------------|------------------------|
|----13--13s15-15--15s20-|-20--20s22-22s20-20s22--|
|------------------------|------------------------|
|------------------------|------------------------|
|------------------------|------------------------|
|------------------------|------------------------|
|
|-25s27--------25--------|-24s=======22s===20-----|
|------------------------|------------------------|
|------------------------|------------------------|
|------------------------|------------------------|
|------------------------|------------------------|
|------------------------|------------------------|


  C                            C/E                       F
|----------------------------|-------------------------|----------------------|
|----22-----20--20-----------|-18s17-18s17-------------|----------------------|
|-------------------------17-|-------------17----17-17-|----17----17s19-19----|
|----------------------------|-------------------------|----------------------|
|----------------------------|-------------------------|----------------------|
|----------------------------|-------------------------|----------------------|
|
|-20s22s=20-17-(17)----------|-------------------------|----------------------|
|-------------------17----17-|-------17s18s17----------|----------------------|
|----------------------17----|----17----------17-------|-17s19----21s19-19s17-|
|----------------------------|-------------------------|----------------------|
|----------------------------|-------------------------|----------------------|
|----------------------------|-------------------------|----------------------|


                            Bb7
  Gtr I
|-------------------------|----------------------|
|-15s17-17----13----13s15-|-13s15---15-15--------|
|-------------------------|----------------------|
|-------------------------|----------------------|
|-------------------------|----------------------|
|-------------------------|----------------------|
|
| Gtr II
|-------------------------|----------------------|
|-------17s18s17----------|-17s20---20-20s18-18--|
|-17-------------17-------|----------------------|
|-------------------------|----------------------|
|-------------------------|----------------------|
|-------------------------|----------------------|


                             C
|--------------------------|-----------------------|
|----15s17--17-17s15-(15)--|-13s15s13--(13)--------|
|--------------------------|-----------------------|
|--------------------------|-----------------------|
|--------------------------|-----------------------|
|--------------------------|-----------------------|
|
|--------------------------|-----------------------|
|-18s20-----20s22s=========|=20--------------20-20-|
|--------------------------|-----------------------|
|--------------------------|-----------------------|
|--------------------------|-----------------------|
|--------------------------|-----------------------|


|--------------------------|------------------------|
|--6s=5-------5s=6s=5------|-------------------3----|
|--------5-------------5---|-2s=5--5----(5)--5------|
|-----------5------------5-|------------------------|
|--------------------------|------------------------|
|--------------------------|------------------------|
|
|-20s19--------------------|------------------------|
|-------20s18---17---------|------------------------|
|------------------17------|---17-----------17---16-|
|---------------------17---|---------17-------------|
|--------------------------|------------------------|
|--------------------------|------------------------|
|
| Gtr IV
|--------------------------|------------------------|
|--------------------------|------------------------|
|--------------------------|----0-----0--2-----0----|
|--------------------------|------------------------|
|--------------------------|------------------------|
|--------------------------|------------------------|


  C/E                      F
|------------------------|-------------------|
|-3s=5-------------6s====|==8-------6--------|
|------------------------|-------------------|
|------------------------|-------------------|
|------------------------|-------------------|
|------------------------|-------------------|
|
|------------------------|-------------------|
|--------15-17---(17)s18s|=20---18-18--------|
|---17-------------------|-------------------|
|------------------------|-------------------|
|------------------------|-------------------|
|------------------------|-------------------|
|
|------------------------|-------------------|
|------------------------|--------------0----|
|-2s=4-------2-0---------|----------0-2------|
|------------------------|--2-------------2--|
|------------------------|-------------------|
|------------------------|-------------------|


                                  Bb7
|-------------------------------|---------------------------|
|-3s=5--------------------------|---------------------------|
|-------------5s=7s5------------|--5s=7s=====5--------------|
|-------------------------------|---------------------------|
|-------------------------------|---------------------------|
|-------------------------------|---------------------------|
|
|---22----24-22s24s==22-(22)-22-|-22s24-22--22s24---(24)s22-|
|-------------------------------|---------------------------|
|-------------------------------|---------------------------|
|-------------------------------|---------------------------|
|-------------------------------|---------------------------|
|-------------------------------|---------------------------|
|
|-------------------------------|---------------------------|
|-------------------------------|---------------------------|
|-------------------------------|---------------------0---2-|
|---(2)-------------------------|-----------------1---------|
|-------------------------------|---------------------------|
|-------------------------------|---------------------------|


                         C
|----------------------|--------------|
|----------------------|-----------5s=|
|--5s=7s=====5---------|--------------|
|----------------------|--------------|
|----------------------|--------------|
|----------------------|--------------|
|
|-22s24s22--25s==27s25-|--------------|
|----------------------|-25-----------|
|----------------------|--------------|
|----------------------|--------------|
|----------------------|--------------|
|----------------------|--------------|
|
|----------------------|--------------|
|--0-------------------|--------------|
|--------2---0-------0-|-(0)----------|
|--------------1-------|--------------|
|----------------------|--------------|
|----------------------|--------------|


|------------------------------|
|--6s=5--------5s=6s5----------|
|-----------5-------------5----|
|------------------------------|
|------------------------------|
|------------------------------|
|
|------------------------------|
|----17-17s18s17-17---17s18s17-|
|-17---------------------------|
|------------------------------|
|------------------------------|
|------------------------------|
|
|------------------------------|
|------------------------------|
|------------------------------|
|------------------------------|
|------------------------------|
|------------------------------|


                         C/E
|----------------------|-------------------------------|
|--6s5-----------------|-3s=5---------5--5-------------|
|-------5---------5----|-------------------------------|
|----------------------|-------------------------------|
|----------------------|-------------------------------|
|----------------------|-------------------------------|
|
|----------------------|-------------------------------|
|------18s17-----18s17-|-------17s18s17------17s18s17--|
|-17---------17--------|---17-----------17-------------|
|----------------------|-------------------------------|
|----------------------|-------------------------------|
|----------------------|-------------------------------|
|
|----------------------|-------------------------------|
|----------------------|-------------------------------|
|--0-------0--2---0----|-2s=4------------2-0-----------|
|----------------------|-------------------------------|
|----------------------|-------------------------------|
|----------------------|-------------------------------|


  F
|--5s7--------7s5--------|-----------------------|
|--------------------5---|-----6s=======5--------|
|------------------------|-----------------------|
|------------------------|-----------------------|
|------------------------|-----------------------|
|------------------------|-----------------------|
|
|------------------------|-----------------------|
|------20s17-------------|-----------------------|
|-17---------17-----17---|-17s22---21--17s19s17--|
|------------------------|-----------------------|
|------------------------|-----------------------|
|------------------------|-----------------------|
|
|------------------------|-----------------------|
|--------------------0---|-----------------------|
|-------------0---2------|-----------------------|
|--2-------------------2-|----(2)----------------|
|------------------------|-----------------------|
|------------------------|-----------------------|


  Bb7
|--------------------|---------------------|
|--------------------|---------------------|
|-----5s7--7-7-------|--7s9s====7----------|
|--------------------|---------------------|
|--------------------|---------------------|
|--------------------|---------------------|
|
|--------------------|---------------------|
|--------------------|---------------------|
|-19s21--------------|-19------19s21s19----|
|--------------------|---------------------|
|--------------------|---------------------|
|--------------------|---------------------|
|
|--------------------|---------------------|
|--------------------|--0------------------|
|----------------0-2-|------2---0-------0--|
|--------------1-----|-------------1-------|
|--------------------|---------------------|
|--------------------|---------------------|


  C
|----------------------|-------------------|
|--6s=5---5-(5)--------|-------------------|
|-------5--------------|-------------------|
|----------------------|-------------------|
|----------------------|-------------------|
|----------------------|-------------------|
|
|----------------------|-----------22---22-|
|-------------------17-|-18s17-------------|
|-17-------------17----|-------17----------|
|----------------------|-------------------|
|----------------------|-------------------|
|----------------------|-------------------|
|
|----------------------|-------------------|
|----------------------|-------------------|
|-(0)------------------|-------------------|
|----------------------|-------------------|
|----------------------|-------------------|
|----------------------|-------------------|


  Am                        Dm
|-------------------------|-------------------------|
|------------3--3---(3)s5-|--5-----3---3------------|
|-----4s5-----------------|-------------------------|
|-------------------------|-------------------------|
|-------------------------|-------------------------|
|-------------------------|-------------------------|
|
|-20s22-----22-22---------|-19-------(19)-22-20s22--|
|-------------------------|-------------------------|
|-------------------------|-------------------------|
|-------------------------|-------------------------|
|-------------------------|-------------------------|
|-------------------------|-------------------------|
|
|-------------------------|-------------------------|
|---------0-----0-1--3--3-|-(3)--1-----1------------|
|-------------------------|-------------------------|
|-------------------------|-------------------------|
|-------------------------|-------------------------|
|-------------------------|-------------------------|


  G                      C
|----------------------|---------------------|
|----------------------|------------6s5------|
|-----4s5s==4--4-------|-----5-----------5---|
|----------------------|-------------------5-|
|----------------------|---------------------|
|----------------------|---------------------|
|
|-22s24s======20-------|-20s22----------13s==|
|----------------------|---------------------|
|----------------------|---------------------|
|----------------------|---------------------|
|----------------------|---------------------|
|----------------------|---------------------|
|
|----------------------|---------------------|
|----------------0-1-1-|----(1)--0--0--------|
|---------2----2-------|-----------------2---|
|----------------------|---------------------|
|----------------------|---------------------|
|----------------------|---------------------|


  Am                      Dm
|-----------------------|-------------------------|
|-----------------------|--3s=5------3------------|
|--5-----------5s7------|-------------------------|
|-----------------------|-------------------------|
|-----------------------|-------------------------|
|-----------------------|-------------------------|
|
|-22--(22)s24-24s==22---|-22--------19s=22-(22)s==|
|-----------------------|-------------------------|
|-----------------------|-------------------------|
|-----------------------|-------------------------|
|-----------------------|-------------------------|
|-----------------------|-------------------------|
|
|-----------------------|-------------------------|
|-----------------------|-------------------------|
|--0-----------0-2--0-2-|-(2)----------------0----|
|-----------------------|-------2-2-(2)-----------|
|-----------------------|-------------------------|
|-----------------------|-------------------------|


  G                                                C
|------------------------|-------------5---------|--------------------|
|------------------------|-----------------------|--------------------|
|--4s5s4----4------------|--4s=5s4---------------|---------9s=10------|
|------------------------|-----------------------|--------------------|
|------------------------|-----------------------|--------------------|
|------------------------|-----------------------|--------------------|
|
|-17-------17s=19-(19)---|-20------20s24---(24)s=|=20-----22-------22-|
|------------------------|-----------------------|--------------------|
|------------------------|-----------------------|--------------------|
|------------------------|-----------------------|--------------------|
|------------------------|-----------------------|--------------------|
|------------------------|-----------------------|--------------------|
|
|------------------------|-----------------------|--------------------|
|------------------------|-----------------------|--3---3-(3)----3----|
|--0---------------------|-----------------------|--4---4-(4)----2----|
|------4-4-(4)------2--2-|-(2)---0--0-(0)----0---|--------------------|
|------------------------|-----------------------|--------------------|
|------------------------|-----------------------|--------------------|


  C/E                          F
|----------------------------|------------------------|
|---------------12----(12)s==|=15--------15s17--------|
|-10s12----------------------|------------------------|
|----------------------------|------------------------|
|----------------------------|------------------------|
|----------------------------|------------------------|
|
|----20s22--22-(22)----------|-20s22s=======20--------|
|----------------------------|------------------------|
|----------------------------|------------------------|
|----------------------------|------------------------|
|----------------------------|------------------------|
|----------------------------|------------------------|
|
|-------------------0------2-|--3----0-0----(0)-------|
|-----3----------3--1------3-|--5----1-1----(1)--3-3--|
|-----4----------4-----------|-------------------4-4--|
|----------------------------|------------------------|
|----------------------------|------------------------|
|----------------------------|------------------------|


                           C
|-17s=====19s=17---------|----------------------|
|----------------18------|-17s18-------17-------|
|------------------------|------------------17--|
|------------------------|----------------------|
|------------------------|----------------------|
|------------------------|----------------------|
|
|-17s=19-(19)s17-17------|----------------------|
|------------------------|-17s18s=17------------|
|------------------------|-------------17-------|
|------------------------|----------------------|
|------------------------|----------------------|
|------------------------|----------------------|
|
|------------------------|----------------------|
|-(3)------1---1-(1)--0--|-----3-----3-(3)---3--|
|-(4)------2---2-(2)--0--|-----4-----4-(4)---2--|
|------------------------|----------------------|
|------------------------|----------------------|
|------------------------|----------------------|


  C/E                         F
|---------------------------|----------------------------|
|----18s17------------------|-5s=8---------6-------------|
|----------17---------------|----------------------------|
|---------------------------|----------------------------|
|---------------------------|----------------------------|
|---------------------------|----------------------------|
|
|---------------------------|---20s22-----22s=24-(24)s22-|
|-17s18s===17----18s20------|----------------------------|
|-------------17------------|----------------------------|
|---------------------------|----------------------------|
|---------------------------|----------------------------|
|---------------------------|----------------------------|
|
|----------------------0-2--|----3----0-0-(0)------------|
|-----3--------------3-1-3--|----5----1-1-(1)------3---3-|
|-----4--------------4------|----------------------4---4-|
|---------------------------|----------------------------|
|---------------------------|----------------------------|
|---------------------------|----------------------------|


                           Bb7
|------------------------|----------------------|
|--5---------------------|----------------------|
|--------------5---------|--5s7---(7)-----------|
|------------------------|----------------------|
|------------------------|----------------------|
|------------------------|----------------------|
|
|-22---------------------|----------------------|
|----------18s20---18s17-|----------------------|
|------------------------|-17-----------(17)s19-|
|------------------------|----------------------|
|------------------------|----------------------|
|------------------------|----------------------|
|
|------------------------|----------------------|
|-(3)--1-1----(1)---0----|--1-----(1)-----------|
|-(4)--2-2----(2)---0----|--2-----(2)-----0---2-|
|------------------------|------------1---------|
|------------------------|----------------------|
|------------------------|----------------------|


                       C
|--------------------|--------------------|-----------|
|--------------------|--------------------|-----------|
|-7s=9s=7--7---------|--------------------|-----------|
|--------------------|--------------------|-----------|
|--------------------|--------------------|-----------|
|--------------------|--------------------|-----------|
|
|--------------------|--------------------|-----8s====|
|--------------------|--------------------|-----------|
|---19---------17s19-|-19---(19)s17-17----|-----------|
|--------------------|--------------------|-----------|
|--------------------|--------------------|-----------|
|--------------------|--------------------|-----------|
|
|--------------------|--------------------|-----------|
|----0---------------|--------------------|-----------|
|-------2--0-------0-|-(0)----------------|-----------|
|------------1-------|--------------------|-----------|
|--------------------|--------------------|-----------|
|--------------------|--------------------|-----------|


                      C/E                 F
|-------------------|---------------5s==|=10-------8-------|
|--------------3----|--3s5---(5)--------|------------------|
|--5----------------|-------------------|------------------|
|-------------------|-------------------|------------------|
|-------------------|-------------------|------------------|
|-------------------|-------------------|------------------|
|
|-15----------17s19-|-22-----------17s==|=22------20-------|
|-------------------|-------------------|------------------|
|-------------------|-------------------|------------------|
|-------------------|-------------------|------------------|
|-------------------|-------------------|------------------|
|-------------------|-------------------|------------------|
|
|-------------------|------------0----2-|--3--0-0-(0)------|
|--3---3-(3)---3----|--3------3--1----3-|--5--1-1-(1)--3-3-|
|--4---4-(4)---2----|--4------4---------|--------------4-4-|
|-------------------|-------------------|------------------|
|-------------------|-------------------|------------------|
|-------------------|-------------------|------------------|


                             C
|--5s=7s====5--5-----------|----------------------------|
|--------------------------|-5s=6s===5--5----(5)--------|
|--------------------------|-----------------------5----|
|--------------------------|----------------------------|
|--------------------------|----------------------------|
|--------------------------|----------------------------|
|
|--------------------------|----------------------------|
|-18s20-------18---(18)s17-|----------------------18s17-|
|--------------------------|---17--(17)s==19------------|
|--------------------------|----------------------------|
|--------------------------|----------------------------|
|--------------------------|----------------------------|
|
|--------------------------|----------------------------|
|----(3)--1-1-(1)----0-----|----3-------3----(3)---3----|
|----(4)--2-2-(2)----0-----|----4-------4----(4)---2----|
|--------------------------|----------------------------|
|--------------------------|----------------------------|
|--------------------------|----------------------------|


  C/E                        F
|--------------------------|-------------------------|
|-------5-(5)------------5s|=====8s=======6--6-----5-|
|--5--5--------------------|-------------------------|
|--------------------------|-------------------------|
|--------------------------|-------------------------|
|--------------------------|-------------------------|
|
|--------------------------|-------------------------|
|--------------------------|-------------------------|
|-17------17s19---(19)-----|-17s19--(19)s17-17-------|
|--------------------------|-------------------------|
|--------------------------|-------------------------|
|--------------------------|-------------------------|
|
|---------------0------2---|-----3----0---0-(0)------|
|--3-------3----1------3---|-----5----1---1-(1)--3-3-|
|--4-------4---------------|---------------------4-4-|
|--------------------------|-------------------------|
|--------------------------|-------------------------|
|--------------------------|-------------------------|


                           C
|------------------------|----------------------|
|--5---------------------|---------------5------|
|---------7-7-(7)-----5--|--5s=7s=5---5------5--|
|------------------------|----------------------|
|------------------------|----------------------|
|------------------------|----------------------|
|
|------------------------|----------------------|
|-17s=18s20---18s=17-----|----------------------|
|--------------------17--|-17s19----(19)--------|
|------------------------|----------------------|
|------------------------|----------------------|
|------------------------|----------------------|
|
|------------------------|----------------------|
|-(3)-----1-1-(1)-----0--|--3-----3--(3)---3----|
|-(4)-----2-2-(2)-----0--|--4-----4--(4)---2----|
|------------------------|----------------------|
|------------------------|----------------------|
|------------------------|----------------------|


  C/E              F
|----------------|-------------------------|---------------------|
|----------------|--5s===8---------6-------|--------------8s=====|
|--5-------------|-------------------------|---------------------|
|----------------|-------------------------|---------------------|
|----------------|-------------------------|---------------------|
|----------------|-------------------------|---------------------|
|
|-----------19---|-20s22---(22)s==19-------|---------------------|
|----------------|-------------------------|-18s20-------18------|
|-17-------------|-------------------------|---------------------|
|----------------|-------------------------|---------------------|
|----------------|-------------------------|---------------------|
|----------------|-------------------------|---------------------|
|
|---------0----2-|--3--------0--0-(0)------|---------------------|
|--3----3-1----3-|--5--------1--1-(1)--3-3-|----(3)--1-1-(1)--0--|
|--4----4--------|---------------------4-4-|----(4)--2-2-(2)--0--|
|----------------|-------------------------|---------------------|
|----------------|-------------------------|---------------------|
|----------------|-------------------------|---------------------|


  C                    C/E                          F
|--------------------|----------------------------|----------------------|
|-20-----------------|----------20----------20s22-|-20s22------20--------|
|--------------------|----------------------------|----------------------|
|--------------------|----------------------------|----------------------|
|--------------------|----------------------------|----------------------|
|--------------------|----------------------------|----------------------|
|
|--------------------|----------------------------|-22s27------25--------|
|-20s17-17-----------|-18s17-17--------17s=====22-|----------------------|
|--------------------|----------------------------|----------------------|
|--------------------|----------------------------|----------------------|
|--------------------|----------------------------|----------------------|
|--------------------|----------------------------|----------------------|
|
|--------------------|---------------0----2-------|-----3--0-0-(0)-------|
|--3-------3-(3)--3--|--3----------3-1----3-------|-----5--1-1-(1)--3-3--|
|--4-------4-(4)--2--|--4----------4--------------|-----------------4-4--|
|--------------------|----------------------------|----------------------|
|--------------------|----------------------------|----------------------|
|--------------------|----------------------------|----------------------|


                        C                          C/E
|---------------------|--------------------------|-------------------------|
|-18-------17------17-|-17s18-------17-17--------|-17s18--17-20----18s==17-|
|---------------------|-----------------------17-|-------------------------|
|---------------------|--------------------------|-------------------------|
|---------------------|--------------------------|-------------------------|
|---------------------|--------------------------|-------------------------|
|
|-24s======22s==20s22-|-22s24--(24)s20-20--------|-24s====22-24---------22-|
|---------------------|--------------------------|-------------------------|
|---------------------|--------------------------|-------------------------|
|---------------------|--------------------------|-------------------------|
|---------------------|--------------------------|-------------------------|
|---------------------|--------------------------|-------------------------|
|
|---------------------|--------------------------|---------------0----2----|
|-(3)--1-1-(1)---0----|-----3--------3-(3)--3----|--3---------3--1----3----|
|-(4)--2-2-(2)---0----|-----4--------4-(4)--2----|--4---------4------------|
|---------------------|--------------------------|-------------------------|
|---------------------|--------------------------|-------------------------|
|---------------------|--------------------------|-------------------------|


  F
|---------------------|-----------------------------|
|---------------------|-----------------------------|
|----17s=====19-------|----17s==19s===17------------|
|---------------------|-----------------------------|
|---------------------|-----------------------------|
|---------------------|-----------------------------|
|
|-20s22------20-------|-----------------------------|
|---------------------|-20s22s=====20-20s=18-17s18--|
|---------------------|-----------------------------|
|---------------------|-----------------------------|
|---------------------|-----------------------------|
|---------------------|-----------------------------|
|
|-----3--0-0-(0)------|-----------------------------|
|-----5--1-1-(1)--3-3-|----(3)---1--1-(1)-----0-----|
|-----------------4-4-|----(4)---2--2-(2)-----0-----|
|---------------------|-----------------------------|
|---------------------|-----------------------------|
|---------------------|-----------------------------|


  H.=H
  Bb7
|----------------------|-------------------------|-------------------:
|----------------------|-------------------------|-------------5s====:
|----------------------|-5s==7-------------------|-------------5s====:
|----------------------|-------------------------|-------------------:
|----------------------|-------------------------|-------------------:
|----------------------|-------------------------|-------------------:
|
|----------------------|-------------------------|-------------------:
|----------------------|-----------------17s18s==|=17----------------:
|-17s19-(19)-----------|---(19)------------------|----17-(17)--------:
|----------------------|-------------------------|-------------------:
|----------------------|-------------------------|-------------------:
|----------------------|-------------------------|-------------------:
|
|----------------------|-------------------------|-------------------:
|--3------1--1-(1)--0--|-----1-----(1)-----------|--0----------------:
|--4------2--2-(2)--0--|-----2-----(2)-------0-2-|---------2---0-----:
|----------------------|---------------1---------|---------------1---:
|----------------------|-------------------------|-------------------:
|----------------------|-------------------------|-------------------:


  C
|-------------------------------:-------------:--------*|
|-15s17---(17)------18s17-------:-------------:--------*|
|-15s17---(17)---17-------17----:-------------:--------*|
|----------------------------17-:-(17)--------:--------*|
|-------------------------------:-------------:--------*|
|-------------------------------:-------------:--------*|
|
|----------22\------------------:-------------:--------*|
|-------------------------------:-------------:--------*|
|-------------------------------:-------------:--------*|
|-------------------------------:-------------:--------*|
|-------------------------------:-------------:--------*|
|-------------------------------:-------------:--------*|
|
|-------------------------------:-------------:--------*|
|-------------------^0----------:--(0)--------:-(0)----*|
|--------------0----^0----------:--(0)--------:-(0)----*|
|-----------0-------^0----------:--(0)--------:-(0)----*|
|-------2-----------------------:-------------:--------*|
|--3----------------------------:-------------:--------*|



Comments
Derek And The Dominos chords | Derek And The Dominos Layla tab