Derek And The Dominos - Bell Bottom Blues Chords & Tabs

 

Bell Bottom Blues Chords & Tabs

Derek And The Dominos Chords & Tabs

Version: 1 Type: Bass Tab 1 rating
1 star 2 stars 3 stars 4 stars 5 stars
comments

Bell Bottom Blues Bass Tab

Artist: Derek and the Dominos
Song: Bell Bottom Blues
Tabbed by: Derek5272

Intro
G|--5-5-4-4-2-2------------------------
D|--------------5-5-3-3-5-5-3----------
A|----------------------------5-3------
E|--------------------------------5-3--

Verse
G|--5-5-4-4-2-2------------------------
D|--------------5-5-3-3-5-5-3----------
A|----------------------------5-3------
E|--------------------------------5-3--

G|--5-5-4-4-2-2--------------
D|--------------5-5-3-3-5-5-6
A|---------------------------
E|---------------------------

Pre-Chorus
G|-------------------------------
D|-7---7-6---6-4-4-------------6-
A|---7-----7-------7-4-5-7/9-7---
E|-------------------------------
[ Tab from: http://www.guitartabs.cc/tabs/d/derek_and_the_dominos/bell_bottom_blues_btab.html ]
Chorus Part A
G|---------------------------------------
D|---------4---5/7-4-------------4-6-7/9-
A|-----4-7---7-------7-5-4-----7---------
E|-5-7---------------------7-5-----------

Chorus Part B
G|-------------------------------------
D|---------4---5/7-4-----------------5-
A|-----4-7---7-------7-5-4-----7-8-8---
E|-5-7---------------------7-5---------

Alt Chorus Part A
G|---------------------------------------
D|---------4---7/9-7-4-----------4-6-7/9-
A|-----4-7---7---------5-4-----7---------
E|-5-7---------------------7-5-----------

Alt Chorus Part B
G|-------------------------------------
D|---------4---7/9-7-4---------------5-
A|-----4-7---7---------5-4-----7-8-8---
E|-5-7---------------------7-5---------

Song Order:
Intro
Verse
Pre-Chorus *2
Chorus Part A
Chorus Part B
Verse
Pre-Chorus *2
Chorus Part A
Chorus Part B
Verse (Guitar Solo)
Pre-Chorus *2
Alt Chorus Part A
Alt Chorus Part B
Verse
Pre-Chorus *2
Chorus Part A
Alt Chorus Part A
Chorus Part A
Alt Chorus Part A
Chorus Part A
Alt Chorus Part B
Comments