Derek And The Dominoes - Layla Chords & Tabs

 

Layla Chords & Tabs

Derek And The Dominoes Chords & Tabs

Version: 1 Type: Bass Tab

Layla Bass Tab

This is my first tab so please dont be too critical, but
i got fed up of the other tabs 'cos they dont quite get it right.

Intro/chorus 

|----------------|---------------|-------------|
|-------0-3-0----|---------------|-------------|
|---0-3-------3--|-5--5-3-1--1-1-|-3--3-3-5--5-|
|----------------|---------------|-------------|

Verse
[ Tab from: http://www.guitartabs.cc/tabs/d/derek_and_the_dominoes/layla_btab.html ]
|---------|---------|---------|---------|---------|
|---------|---------|-2-2-----|---------|---------|
|-4-4-4-4-|-2-2-2-2-|-----2-2-|---------|---------|
|---------|---------|---------|-2-2-2-2-|-4-4-4-4-|

verse part 2
G|------------------------------------|
D|----------1-1-------------1-1-------|
A|------1-1-----0-0-----1-1-----0-0---|
E|--1-1-------------1-1---------------|