Depswa - From The Inside Chords & Tabs

 

From The Inside Chords & Tabs

Depswa Chords & Tabs

Version: 1 Type: Tab 1 rating
1 star 2 stars 3 stars 4 stars 5 stars
comments

From The Inside Tab

   
A great song from a great band!  This is as close as i can get.  I got most of this off 
another website, but it didnt sound completley right.  I fixed up a few things and here 
it is.

TUNING: B F# B E G# C# (low to high)
^ = harmonic   / = Slide

INTRO/VERSE
c#------------------------------------------
g#------------------------------------------
e-------------------------------------------
b-------2---3^------------------------------
f#----0---0---3^---3^------5-5-5-----5-5-5--
b---0------------0-----0h3-------3/5--------
[ Tab from: http://www.guitartabs.cc/tabs/d/depswa/from_the_inside_tab.html ]
PRE-CHORUS
c#---------------------------------------------------------
g#---------------------------------------------------------
e----------------7^-7^------------------5^-5^-7^-7^--------
b---7^-7^-7^-7^--------7^-7^---7^-7^-7^-------------7^-7^--
f#---------------------------------------------------------
b----------------------------------------------------------

c#-----------------------------------------
g#-----------------------------------------
e----------------7^-7^--------9-10-12-14-16
b---7^-7^-7^-7^--------7^-7^--x-x---x--x--x
f#----------------------------7-8--10-12-14
b------------------------------------------

CHORUS
c#------------------------------------
g#------------------------------------
e-----------------7-7-------10---10/12
b---7-7-7----5-5--x-x--7-7--x--7- x---(repeat 8x in all)
f#--7-7-7----5-5--5-5--7-7--8--7--8/10
b---7-7-7----5-5-------7-7-----7------

BRIDGE
c#------------------------------------------
g#------------------------------------------
e---10-10-10-10-10-10-5-5--7-7-7-7-7-7-7-7--
b---10-10-10-10-10-10-5-5--7-7-7-7-7-7-7-7--
f#--8--8--8--8--8--8--3-3--5-5-5-5-5-5-5-5--
b-------------------------------------------

Enjoy. If you have any questions e-mail is BigIck72@aol.com
Comments