Deportivo - Parmi Eux Chords & Tabs

 

Parmi Eux Chords & Tabs

Deportivo Chords & Tabs

Version: 1 Type: Bass Tab

Parmi Eux Bass Tab

   
-------------------------------------------------------------------------------
                             Parmi Eux - Deportivo
-------------------------------------------------------------------------------

Tabbed By : superfranki

Tuning: Standard

Verse:
G |-------------------------------------------------------|
D |----5------------8------------5------------8-------5---| x2
A |-3----3----8--6----6----5--3----3----8--6----6---5---5-|
E |--------6------------3------------6------------3-------|
[ Tab from: http://www.guitartabs.cc/tabs/d/deportivo/parmi_eux_btab.html ]
G |---------------------------------|
D |---------------------------------| x2
A |---------------------------------|
E |-1-1-1-1-1-1-1-1-3-3-3-3-3-3-3-3-|

Chorus:
G |---------------------------------|
D |---------------------------------| x4
A |-3-3-3-3---------6-6-6-6---------|
E |---------6-6-6-6---------3-3-3-3-|


| /  slide up 
| \  slide down
| h  hammer-on
| p  pull-off
| ~  vibrato
| +  harmonic
| x  Mute note
===============================================================================