Depeche Mode - Freestate Chords & Tabs

 

Freestate Chords & Tabs

Depeche Mode Chords & Tabs

Version: 1 Type: Tab 0 ratings
1 star 2 stars 3 stars 4 stars 5 stars
comments

Freestate Tab

E-------------------------|------------------------
B-------------------------|------------------------
G-------------------------|--------4----2----------
D--------7----4---2/4-----|----------------4--2/4--
A--4--4---------4---------|--4--4------------------
E-------------------------|------------------------
I can hear your soul crying
Listen to your spirit sighing
I can feel your desperation
Emotional deprivation

E-----------------------------7-------7------------
B-------------------------------7\5-4--------------
G--------------------------------------------------
D--4-----------2---------------------------4----2--
A--4-----------2---------------------------4----2--
E--2-----------0---------------------------2----0--
Let yourself go
Let yourself go
Let your feelings show

E-------------------------|------------------------
B-------------------------|------------------------
G-------------------------|--------4----2----------
D--------7----4---2/4-----|----------------4--2/4--
A--4--4---------4---------|--4--4------------------
E-------------------------|------------------------
Picking up the conversations
Deep in your imagination
Tune into the lonely voices
Talking of their only choices


E--------------------------------------------------
B--------------------------------------------------
G-------------------------------------4------------
D--4-----------2---------------------------4----2--
A--4-----------2-------------2/5\4-2-------4----2--
E--2-----------0---------------------------2----0--
Let yourself go
Let yourself go
Let your spirit grow

E-------------------------------------------------
B-------------------------------------------------
G------------2------------------------------------
D---2--------0---------------7-----------5--------
A---0--------0---------0--5-----5--0--3-----3--0--
E-------------------------------------------------
Step out of your cage
And onto the stage 
It's time to start
Playing your part 
Freedom awaits
Open the gates
Open your mind
Freedom's a state
[ Tab from: http://www.guitartabs.cc/tabs/d/depeche_mode/freestate_tab.html ]
E------------------------------------------------
B------------------------------------------------
G-----------------------2------------------------
D------2--3--2-------0-----0---------------------
A---0-------------0-------------0--3--5--3-------
E------------------------------------------------

E-----------------------------------
B-----------------------------------
G-----------------------------------
D--------------7-----------5--------
A--------0--5-----5--0--3-----3--0--
E-----------------------------------

E----------------------------|----------------------------
B----------------------------|----------------------------
G--------------2---2---------|--------------2---2---------
D--4---4-2/4---------2/4-2/4-|--4---4-2/4---------2/4-2/4-
A----------------------------|----------------------------
E----------------------------|----------------------------
I can taste the tears falling
The bitterness inside you calling
Yearning for a liberation
Emotional emancipation

E--------------------------------------------------
B--------------------------------------------------
G-------------------------------------4------------
D--4-----------2---------------------------4----2--
A--4-----------2-------------2/5\4-2-------4----2--
E--2-----------0---------------------------2----0--
Let yourself go
Let yourself go
Let your senses over flow

E-------------------------------------------------
B-------------------------------------------------
G------------2------------------------------------
D---2--------0---------------7-----------5--------
A---0--------0---------0--5-----5--0--3-----3--0--
E-------------------------------------------------
Step out of your cage
And onto the stage 
It's time to start
Playing your part 
Freedom awaits
Open the gates
Open your mind
Freedom's a state

E------------------------------------------------
B------------------------------------------------
G-----------------------2------------------------
D------2--3--2-------0-----0---------------------
A---0-------------0-------------0--3--5--3-------
E------------------------------------------------

E-----------------------------------
B-----------------------------------
G-----------------------------------
D--------------7-----------5--------
A--------0--5-----5--0--3-----3--0--
E-----------------------------------
Comments