Depeche Mode - Freelove Chords & Tabs

 

Freelove Chords & Tabs

Depeche Mode Chords & Tabs

Version: 1 Type: Tab 2 ratings
1 star 2 stars 3 stars 4 stars 5 stars
comments

Freelove Tab

   
Depeche mode - Freelove

e |-1-----1-----1---1-----3----1---|-1---1-3--4-3-------3------1---1-3---4-3-----|-------
B |---3-----3-----3---2------2---2-|---2-----2----4---3---4p3----2-----2-----4---|-3---4-
G |-----2-----2---------3----------|----------------5--------------------------5-|---5---
D |--------------------------------|---------------------------------------------|-------
A |--------------------------------|---------------------------------------------|-------
E |--------------------------------|---------------------------------------------|-------
[ Tab from: http://www.guitartabs.cc/tabs/d/depeche_mode/freelove_tab.html ]
       verse			    C#	   D#    Fm  E/Fm D#/Fm
e |---|-1--------------6----------|-----------------------------
B |---|--------4-------------9----|----6------8--(--9--9---9-)--
G |-6-|------1-------------6------|---6------8---(-10--10--10)--
D |---|----3-----3-------------8--|--6------8----(10---10--10)--
A |---|---------------------------|-4------6-----8-----7---6----
E |---|---------------------------|-----------------------------

interlude (play a couple of times)
e |--------------
B |----6------6--
G |---7------6---
D |--7------6----
A |-5------4-----
E |--------------

the chorus is played differently after the interlude:
e |-1-----1----1-----3-1---1-----1----1-----3-1-|-1-----3-1-3--------3-4-3----1-----3-1-3-3----------
B |---3----------2-----------3-----3----2-------|---2----------4---4-------4----2-----------4---3--4-
G |-----2----------3-----------2----------3-----|-----3----------5----------------3-----------5------
D |---------------------------------------------|----------------------------------------------------
A |---------------------------------------------|----------------------------------------------------
E |---------------------------------------------|----------------------------------------------------

tabbed by dION (kantongerecht@hotmail.com)
Comments