Demon Hunter - Summer Of Darkness Chords & Tabs

 

Summer Of Darkness Chords & Tabs

Demon Hunter Chords & Tabs

Version: 1 Type: Tab 0 ratings
1 star 2 stars 3 stars 4 stars 5 stars
comments

Summer Of Darkness Tab

   
Tabbed by: Miguel
Email: linesix_1@hotmail.com

Intro:
Db|-----------------------------------------------------------------|
Ab|-----------------------------------------------------------------|
E |----------3---------3---------3----------------------------------|  X4 
B |----00000--2--00000--2--00000--2--0-2h3-2-0----------------------| times
Gb|----00000---0-00000---0-00000---0-0-2h3-2-0----------------------|
B |----00000-----00000-----00000-----0-2h3-2-0----------------------|
       XXXXX     XXXXX     XXXXX
Verse:
Db|-----------------------------------------------------------------|
Ab|-----------------------------------------------------------------|
E |-------------------------------8---------------------------------|  X4
B |---000--00-0-0-0--000--000--00--8-7------------------------------| times
Gb|---000--00-0-0-0--000--000--00-----5-6---------------------------|
B |---000--00-0-0-0--000--000--00-----------------------------------|
      xxx  xx x x x  xxx  xxx  xx              
      Listen to the song for the rhythm
Pre-chorus
Db|-----------------------------------------------------------------|
Ab|-----------------------------------------------------------------|
E |-----------------------------------------------------------------|
B |--55555555---33333333--------------------------------------------|
Gb|--55555555---33333333--------------------------------------------|
B |--55555555---33333333--------------------------------------------|
[ Tab from: http://www.guitartabs.cc/tabs/d/demon_hunter/summer_of_darkness_tab.html ]
Chorus:
Db|-----------------------------------------------------------------|
Ab|-----------------------------------------------------------------|
E |-----------------------------------------------------------------|
B |--77777777--3-3h5--77777777--10-9--77777777--3-3h5--77777777-3---|
Gb|--77777777--3-3h5--77777777--10-9--77777777--3-3h5--77777777-3---|
B |--77777777--3-3h5--77777777--10-9--77777777--3-3h5--77777777-3---|


Db|------------------------------------------------------------------------|
Ab|------------------------------------------------------------------------|
E |---3------3------3--------------------3----------3----------------------|
B |00--2--00--2--00--2--0-2h3-2-0--00000--2---00000--2---00000--0-2h3--2-0-|
Gb|00---0-00---0-00---0-0-2h3-2-0--00000---0--00000---0--00000--0-2h3--2-0-|
B |00-----00-----00-----0-2h3-2-0--00000------00000------00000--0-2h3--2-0-|
   xx     xx     xx                xxxxx      xxxxx      xxxxx

Bridge:
Db|---------------------------|
Ab|---------------------------|
E |-----3-----1-----10--------|  x4
B |--00--2--0----00---9-------| times 
Gb|--00-----0----00-----------|
B |--00-----0----00-----------|

End of song:
Db|-----------------------------------|
Ab|-----------------------------------|
E |----3------3--------3--------------|  X2
B |-00--2---00--2---00--2---0-2h3-----| times
Gb|-00---0--00---0--00---0--0-2h3-----|
B |-00------00------00------0-2h3-----|

Db|--------------------------------------|
Ab|--------------------------------------|
E |-----3--------3--------3--------------|  X2
B |-000--2---000--2---000--2---0-2h3-----| times
Gb|-000---0--000---0--000---0--0-2h3-----|
B |-000------000------000------0-2h3-----|
    XXX      XXX      XXX                            

Db|------------|
Ab|------------|
E |------------|  
B |---0000-----| 
Gb|---0000-----|
B |---0000-----|
      XXXX  

 The end of the song is a little wrong, but besides that everithing is ok.

  Have fun :P

| /  slide up
| \  slide down
| h  hammer-on
| p  pull-off
| ~  vibrato
| +  harmonic
| x  Mute note
Comments