Demon Hunter - My Heartstrings Come Undone Chords & Tabs

 

My Heartstrings Come Undone Chords & Tabs

Demon Hunter Chords & Tabs

Version: 1 Type: Tab 0 ratings
1 star 2 stars 3 stars 4 stars 5 stars
comments

My Heartstrings Come Undone Tab

Drop D then tune down 1 1/2 steps.


1:

C#|---8-----8-----7-----7-----7-----7----------------||
G#|-8-----8-----8-----8-----7-----7--------8------8--||
 E|9-9---9-9---7-7---7-7---7-7---7-7-----9-----9-----||
 B|-------------------------------------7-7---7-7----||
F#|--------------------------------------------------||
 B|--------------------------------------------------||
 
Pickup chord is open top three strings
2:Chords change every two measures
 
  
C#|-----------||
G#|-----------||
 E|-----------||
 B|-2-5-7-7---||
F#|-2-5-5-7---||
 B|-2-5-7-7---||


3:Repeat each twice just like beginning

C#|--------------------------------------------------||
G#|---1----0-----0-----------------------------------||
 E|-0----0-------------0-----------------------------||
 B|2-2--0-0----4-----2-------------------------------||
F#|-----------5-5---0-0------------------------------||
 B|--------------------------------------------------||
[ Tab from: http://www.guitartabs.cc/tabs/d/demon_hunter/my_heartstrings_come_undone_tab.html ]
4:Listen for chord changes and rhythm



C#|--------------------------------------------------||
G#|--------------------------------------------------||
 E|--------------------------------------------------||
 B|-2-3-0-5-2-3-5-0----------------------------------||
F#|-2-3-0-5-2-3-5-0----------------------------------||
 B|-2-3-0-5-2-3-5-0----------------------------------||

5:play twice
Listen for chord changes and rhythm


C#|--------------------------------||
G#|--------------------------------||
 E|--------------------------------||
 B|10-0-2-5------------------------||
F#|10-0-2-5------------------------||
 B|10-0-2-5------------------------||

Play #3
then 4 twice
then 5 twice



C#|---------------------------------||
G#|---------------------------------||
 E|---------------------------------||
 B|2-0-1-3--------------------------||
F#|2-0-1-3--------------------------||
 B|2-0-1-3--------------------------||

play #5 5 times
Comments