Demon Hunter - Annihlate The Corrupt Chords & Tabs

 

Annihlate The Corrupt Chords & Tabs

Demon Hunter Chords & Tabs

Version: 1 Type: Tab

Annihlate The Corrupt Tab

   
Freakin easy awesome song!

I believe Demon Hunter uses Drop B tuning (B# G# B# E# A D, but I'm really not sure I'm a beginner)

h = Hammer-on
PM = palm-mute

Intro 1/verse
-----------------------------------|
-----------------------------------|
-----------------------------------|
--77777777-----7777777777----------| (there's something between that if you
--77777777-----7777777777----------|  know how to make that sound on guitar
-----------------------------------|   put it as a comment)
[ Tab from: http://www.guitartabs.cc/tabs/d/demon_hunter/annihlate_the_corrupt_tab.html ]
Intro part 2 (main riff)
----------------------------------|
----------------------------------|
----------------------------------|
--1-1-1/2-0----1-1/2-0------------| (play the second part fairly fast)
--1-1-1/2-0----1-1/2-0------------|
--1-1-1/2-0----1-1/2-0------------|

Pre-Chorus
--------------------------|
--------------------------|
--------------------------|
---0000---------00--------|
---0000-5-------00--5h6---|
---0000---------00--------|
PM xxxx         xx
Chorus
-------------------------|
-------------------------|
-------------------------| (there's also what sounds like a keyboard, but I
---2----5----0-----10----|  can't tab it out. It would be useful for the
---2----5----0-----10----|  last chorus.)
---2----5----0-----10----|

Interlude part 1
--------------|
--------------|
--------------|
--------------|
-----9--8-----|
-----9--8-----|

Interlude part 2
----------------|
----------------|
----------------|
----------------|
--0-0-5-0-7-0-8-|  (palm muted first 2x, then no PM.)
----------------|