Demi Lovato - La La Land Solo Chords & Tabs

 

Demi Lovato Chords & Tabs

Version: 1 Type: Tab 0 ratings
1 star 2 stars 3 stars 4 stars 5 stars
comments

La La Land Solo Tab

   
Title: La La Land
Artist: Demi Lovato
Album: Donīt Forget
Year: 2008
Tabbed by: MetallAndy


Symbols:
^: Bend
/: Slide
~: Vibrato
14h16: Hammer on
16p14: Pull off
7^(9): Bend to note in parentheses
17^(19)r17: Bend to note in parentheses and release back to first note
t: Tap the note


e|----------------|
B|----------------|
G|-14^(16)r14-----|
D|------------14/-|
A|----------------|
E|----------------|

(I think this part is wrong, but it sounds kinda close)
e|------------------------------------------------------------------------|
B|-19-17h19p17------------------------------------------------------------|
G|-------------19-18h19p18-16-14h16p14------------------------------------|
D|-------------------------------------16-14h16p14------------------------|
A|-------------------------------------------------16-14h16p14------------|
E|-------------------------------------------------------------17-14h17p14|

e|-----------------------|
B|-----------------------|
G|------14-14^(16)r14----|
D|-/14~------------------|
A|-----------------------|
E|-----------------------|

e|------------------------------------------------|
B|--19-17------------------------17--17-----------|
G|-------19-18h19p18-16-14-16-16^-16^-16^-14------|
D|------------------------------------------16----|
A|------------------------------------------------|
E|------------------------------------------------|

e|-----------------------------------------------------|
B|-5------7--------9-------10-------14-----------------|
G|-7^(9)--9^(11)--11^(13)--12^(14)--16^(18)------------|
D|-----------------------------------------------------|
A|-----------------------------------------------------|
E|-----------------------------------------------------|
[ Tab from: http://www.guitartabs.cc/tabs/d/demi_lovato/la_la_land_solo_tab.html ]
e|------------------------------17-15-14-------15-13----------------|
B|------------------17^(19)r17-----------15----------15-------------|
G|----14^(16)r14----------------------------14----------14^(16)r14~-|
D|---------------14-------------------------------------------------|
A|------------------------------------------------------------------|
E|------------------------------------------------------------------|



Here is the piano part at the end of the song:

E|-t21p17p12-t21p17p12-t21p17p12-t21p17p12-|
B|-----------------------------------------|
G|-----------------------------------------|
D|-----------------------------------------|
A|-----------------------------------------|
E|-----------------------------------------|

E|-t19p16p12-t19p16p12-t19p16p12-t19p16p12-|
B|-----------------------------------------|
G|-----------------------------------------|
D|-----------------------------------------|
A|-----------------------------------------|
E|-----------------------------------------|

E|-t17p14p9-t17p14p9-t17p14p9-t17p14p9---|
B|---------------------------------------|
G|---------------------------------------|
D|---------------------------------------|
A|---------------------------------------|
E|---------------------------------------|

E|-t17p12p9-t17p12p9-t17p12p9-t17p12p9---|
B|---------------------------------------|
G|---------------------------------------|
D|---------------------------------------|
A|---------------------------------------|
E|---------------------------------------|

E|-t17p14p10-t17p14p10-t17p14p10---------|
B|---------------------------------------|
G|---------------------------------------|
D|---------------------------------------|
A|---------------------------------------|
E|---------------------------------------|

E|-t19p14p10-t17p14p10-t19p14p12---------|
B|---------------------------------------|
G|---------------------------------------|
D|---------------------------------------|
A|---------------------------------------|
E|---------------------------------------|
Comments