Demented Are Go - Rubber Love Chords & Tabs

 

Rubber Love Chords & Tabs

Demented Are Go Chords & Tabs

Version: 1 Type: Tab 0 ratings
1 star 2 stars 3 stars 4 stars 5 stars
comments

Rubber Love Tab

Make sure how to beat your strings...listen to the song!!

Intro:
     (2x)
e:----------------|-------------------------|
H:----------------|-------------------------|
G:--8888------5-7-|-8888------5555-10101010-|
D:--8888-8888-5-7-|-8888-8888-5555-10101010-|
A:--6666-8888-3-5-|-6666-8888-3333--8-8-8-8-|
E:-------6666-----|------6666---------------|

Verse:
     (2x)
e:----------------|-------------------------|
H:----------------|-------------------------|
G:--8888------5-7-|-8888------5555-10101010-|
D:--8888-8888-5-7-|-8888-8888-5555-10101010-|
A:--6666-8888-3-5-|-6666-8888-3333--8-8-8-8-|
E:-------6666-----|------6666---------------|

     (2x)
e:----------------|-------------------------|
H:----------------|-------------------------|
G:--8888------5-7-|------------------5-7----|
D:--8888-8888-5-7-|-333333333---8888-5-7----|
A:--6666-8888-3-5-|-333333333---8888-3-5----|
E:-------6666-----|-111111111---6666--------|

another Verse:
[ Tab from: http://www.guitartabs.cc/tabs/d/demented_are_go/rubber_love_tab.html ]
     (2x)
e:-------------|-------------------------|
H:-------------|-------------------------|
G:--8888-------|-8888------5555-10101010-|
D:--8888-8888--|-8888-8888-5555-10101010-|
A:--6666-8888--|-6666-8888-3333--8-8-8-8-|
E:-------6666--|------6666---------------|

     (2x)
e:-------------|-------------------------|
H:-------------|-------------------------|
G:--8888-------|------------------5-7----|
D:--8888-8888--|-333333333---8888-5-7----|
A:--6666-8888--|-333333333---8888-3-5----|
E:-------6666--|-111111111---6666--------|

Slow part:

e:11--6--11--6--11--6--1--6-------1------6----------|
H:11--6--11--6--11--6--1--6------1--1----6----------|
G:12--7--12--7--12--7--2--7-----2-----2--7---9--11--|
D:13--8--13--8--13--8--3--8----3---------8--10--12--|
A:13--8--13--8--13--8--3--8---3----------8--10--12--|
E:11--6--11--6--11--6--1--6--1-----------6---8--10--|

(continued)
-11--6--11--6--11--6--1--6--1--5~6--|
-11--6--11--6--11--6--1--6--1--5~6--|
-12--7--12--7--12--7--2--7--2--6~7--|
-13--8--13--8--13--8--3--8--3--7~8--|
-13--8--13--8--13--8--3--8--3--7~8--|
-11--6--11--6--11--6--1--6--1--5~6--|

That's it! Listen to the song, get close to it and try to play it!!
Have fun!!
Comments