Deliriou5 - Deeper Chords & Tabs

 

Deeper Chords & Tabs

Deliriou5 Chords & Tabs

Version: 1 Type: Tab 0 ratings
1 star 2 stars 3 stars 4 stars 5 stars
comments

Deeper Tab

   
Title: Deeper
Group: Deliriou5? 
Album:king of fools
tabbed by Rocki Dannhauer    rockidannhauer@hotmail.com
Deeper
(guitar )  
E  | --------------------------------------------------------|
B | --------------------------------------------------------|
G | ---------------------------------------------------------|
D | -------(the same for the Bass)---------------------|
A | ----7----7----7----7----7-----5----5-------( 4x)----|
E | --------------------------------------------------------|
            
| E5 | Bsus | C#M7 | Asus2 | E5 | Bsus| Dsus2 | A |    (chords for intro)
   x       2        4         0        x      2        2       0          
   x       5        5         2        x      5        3       2      
   x       4        4         4        x      4        2       2       
   2       4        6         2        2      4        2       2      
   2       0        4         0        2      0        0       0
   0       0      0(4)       0       0       0       0        0

(first solo)
E |---------------------- | ----------------------------- |
B |------7-------------- | -------7--9----------------- |
G |-8-9----9-9-9------ | -8-9--------8-9------------ |
D |----------------9-9- | -----------------9---(hold) |
A |--------------------- | ---------------------------   |
E |--------------------- | ----------------------------- |
 
Bass for verse 1 
D|--------------------------------------------------------|
A|-7-7-7-7-7- -5-5-5-5-5- -4-4-4-4-4- -2-2-2-2-2-|	
E|--------------------------------------------------------|
(in guitar) I want to go deeper, but I don't know how to swim....
|Bsus | Asus2 | F#M7 (add 4) | C#M7 |Bsus |Asus | F#M7 | C#M7 | Bsus | Asus2 |
   2          0              0             4           2         0        0         4         2         0
   5          2              0             5           5         2        0         5         5         2
   4          4              2             4           4         4        2         4         4         4
   4          2              4             6           4         2        4         6         4         2
   0          0              4             4           0         0        4         4         0         0
   0          0              0           0(4)         0         0        0        0(4)       0         0

Chorus: 
|  E5  |  Bsus  |  C#M7  |  Asus2  |  E5  |  Bsus  |  D  |  A  |	
    x         2          4            0          x         2       2     0
    x         5          5            2          x         5       3     2
    x         4          4            4          x         4       2     2
    2         4          6            2          2         4       0     2
    2         0          4            0          2         0    x(0)     0
    0         0        0(4)          0          0         0    x(0)     0  (out instruments)
[ Tab from: http://www.guitartabs.cc/tabs/d/deliriou5/deeper_tab.html ]
Verse 2: Bass plays like in first verse. (In drums, bass and guitar)
	Quietly play
| E5 | E5/D | C#M7 | Bsus | E5 | E5/D | C#M7 | Bsus |
   x       x         4         2      x       x          4         2
   x       0         5         5      x       0          5         5
   x       2         4         4      x       2          4         4 
   2       4         6         4      2       4          6         4 
   2       5         4         0      2       5          4         0
   0       x       0(4)       0      0       x         0(4)      0
( first in guitar & chorus {2x}) 
D.S. al Coda 
| C#M7 | B | A | F#M | C#M7 | B | C#M7 | D | A | B5 | C#5 | D5 | C#M7 | Bsus | C#M7| F#M7| 
   4        2    0     2        4       2       4      2    0   x      x      x       4         2         4         0
   5        4    2     2        5       4       5      3    2   x      x      x       5         5         5         0
   4        4  2(4)   2        4       4       4      2  2(4) 4      6      7       4         4         4       1(4)
   6        4    2     4        6       4       6      0    2   4      6      7       6         4         6         3
   4        2    0     0        4       2       4      0    0   2      4      5       4         0         4         3
  0(4)     2    0     0       0(4)     2     0(4)    0    0   x      x      x     0(4)       0      0(4)        0

Solo:
E|--------------------|---------------------|-----------------|---------------7--| 
B|------7------------|------7--------------|------7----------|------------------|
G|-8-9---9-9-9-----|-8-9-----9-8-9-----|-8-9---9-8-9---|-8-9-9-8-9-|
D|---------------9-9t-|----------------9-9t-|---------------9t-|---------------|
A|--------------------|---------------------|------------------|------------------|
E|--------------------|----------------------|-----------------|------------------|   
                                                                                             
E|-------------------------|------------------|-------------------------|
A|---------7--------------|------7-9--------|--------------------5t---|
G|-9-8-9----9-9-9------|-8-9------8-9----|--------4t---7t---6t-|
D|-------------------9-9-|----------------9-|--5t—7t--------------|
A|------------------------|-------------------|-------------------------|
E|------------------------|-------------------|-------------------------| (chords for solo)
                                                                           t= trill
 | E5 | B | C#M7 | Asus2 | E5 |
    x    2      4         0       x
    x    4      5         2       x
    x    4      4       2(4)    x 
    2    4      6         2       2
    2    2      4         0       2 
    0    0    0(4)       0       0  (Repeat chorus 2x)


This is my first tab. I hope that you all enjoy playing the song.
Questions, comments, blah blah blah.... rockidannhauer@hotmail.com
Comments