Delillos - Uendelig Trist Chords & Tabs

 

Uendelig Trist Chords & Tabs

Delillos Chords & Tabs

Version: 2 Type: Tab 0 ratings
1 star 2 stars 3 stars 4 stars 5 stars
comments

Uendelig Trist Tab

   
DeLillos - Uendelig trist
==========================

Band : De Lillos
Album: Neste Sommer
Music: De Lillos
Text : Lars Lillo Steenberg
Tab  : Thomas Teigland, thomas_teigland@yahoo.com

My first DeLillos tab. Great but sad song about
a love you cant have, we can all relate.
Thanks to Geir Fauskeland for the
previously released pro chords on this song!
Minor things have been corrected. Enjoy!

--- 

Guitar 1 and 2 plays the verse and chorus.
Guitar 1 plays verse when Guitar 2 plays solo.
Harmonica plays at various places in the song.

Verse:

C - G/B - Am - Em - F - G (x2)

Chorus:

F - G - Am - Em - F - G - C (x2)

Solo:
[ Tab from: http://www.guitartabs.cc/tabs/d/delillos/uendelig_trist_tab_ver_2.html ]
e------/10--8--7----------------------------------
B---8-------------10-8----------------------------
G----------------------9-(hold)-------------------
D-------------------------------------------------
A-------------------------------------------------
E-------------------------------------------------

e-------------------------------------------------
B-----10------------------------------------------
G---9-----5-7--9-7-9--5-(hold)--------------------
D-------------------------------------------------
A-------------------------------------------------
E-------------------------------------------------

e-------------------------8-10-12--15-------------
B--------5-5h6p5----------------------------------
G---5-7----------5--------------------------------
D------------------5------------------------------
A-------------------------------------------------
E-------------------------------------------------

The order of the song is like follows:

Verse (with harmonica)
Verse
Chorus
Verse (with harmonica)
Verse
Chorus
Verse (with Guitar 2 solo)
Chorus
Verse (Guitar 1 only strumming each chord)
Verse
Chorus

Thats it, enjoy!

- EOF -
Comments