Deja Voodoo - We Are Deja Voodoo Chords & Tabs

 

We Are Deja Voodoo Chords & Tabs

Deja Voodoo Chords & Tabs

Version: 2 Type: Tab 0 ratings
1 star 2 stars 3 stars 4 stars 5 stars
comments

We Are Deja Voodoo Tab

-------------------------------------------------------------------------------
			     We are Deja Voodoo - Deja voodoo
-------------------------------------------------------------------------------
Tabbed by:Steve-O
My First tab so its probably wrote real bad
[ Tab from: http://www.guitartabs.cc/tabs/d/deja_voodoo/we_are_deja_voodoo_tab_ver_2.html ]
Tuning:Standard
   
  verse  Palm Muted
e|---------------------------|
B|---------------------------|
G|---------------------------|Play this 3 times 
D|---------------------------|
A|---------------------------|
E|55-00-55-00--11-00-11-00---|
  
  Pre-Chorus
e|---------------------------------------------------------------------------|
B|---------------------------------------------------------------------------|
G|---------------------------------------------------------------------------|
D|55555555-66666666--------------777--5-------------------play pre chorus----|
A|55555555-66666666----------------------88-5-88-5-88------------------------|
E|33333333-44444444----------------------------------------------------------|
   
  Play verse again and then the pre-chorus
   Chorus
e|---------------------------------------------------------------------------|
B|---------------------------------------------------------------------------|
G|------------------77777-99-------------------------------------------------|
D|-77777-1010101010-77777-99------Play this twice----------------------------|
A|-77777-1010101010-55555-77-------------------------------------------------|
E|-55555-8-8-8-8-8-----------------------------------------------------------|

e|---------------------------------------------------------------------------|
B|---------------------------------------------------------------------------|
G|---------------------------------------------------------------------------|
D|---------------------------------------------------------------------------|
A|-12/141414141414----play this seven times then-12121212--------------------|
E|-10/121212121212-------------------------------10101010--------------------|

e|---------------------------------------------------------------------------|
B|---------------------------------------------------------------------------|
G|-then you play the verse over the solo and then pretty much repeat the song|
D|---------------------------------------------------------------------------|
A|-----------------solos 2 hard for me 2 tab---------------------------------|
E|---------------------------------------------------------------------------|
Comments