Deja Voodoo - Beers Chords & Tabs

 

Beers Chords & Tabs

Deja Voodoo Chords & Tabs

Version: 2 Type: Tab 0 ratings
1 star 2 stars 3 stars 4 stars 5 stars
comments

Beers Tab

-----------------------------------------------------------------------------
          Deja Voodooo - Beers
-----------------------------------------------------------------------------

Deja Voodoo - Beers
tabbed from Brown Sabbath
Track 2

Tabbed by: @$H
Email: billiejoefanclub@hotmail.com

~ Hold
^Bend

Tuning: Standard

Intro Part 1
e|----------------|---------------------------------------------------------|
B|----------------|---------------------------------------------------------|
G|5~~~~~85--------|5~~~~~85-------------------------------------------------|
D|5~~~~~85--------|5~~~~~85-------------------------------------------------|
A|3~~~~~63--------|3~~~~~63-------------------------------------------------|
E|------------6^^^|------------6^^^-----------------------------------------|

Intro Part 2
e|-----------------------|--------------------------------------------------|
B|-----------------------|--------------------------------------------------|
G|5~~~~~85-55-55-555-----|5~~~~~85-55-55-555--------------------------------|
D|5~~~~~85-55-55-555-----|5~~~~~85-55-55-555--------------------------------|
A|3~~~~~63-33-33-333-----|3~~~~~63-33-33-333--------------------------------|
E|-------------------6^^^|-------------------6^^^---------------------------|

Main Riff
e|--------------|-----------------------------------------------------------|
B|--------------|-----------------------------------------------------------|
G|5-8-5353-5-8-5|5-8-5353-5-8-5---------------------------------------------|X2
D|5-8-5353-5-8-5|5-8-5353-5-8-5---------------------------------------------|
A|3-6-3131-3-6-3|3-6-3131-3-6-3---------------------------------------------|
E|--------------|-----------------------------------------------------------|
Right Now
Yeah!
Waaaah!

Verse 1
e|-----------|--------------------------------------------------------------|
B|-----------|--------------------------------------------------------------|
G|5~~~~~5-8-5|5~~~~~5-8-54--------------------------------------------------|
D|5~~~~~5-8-5|5~~~~~5-8-54--------------------------------------------------|
A|3~~~~~3-6-3|3~~~~~3-6-32--------------------------------------------------|
E|-----------|--------------------------------------------------------------|
I'm a great lyricist
I can rhyme words like this

Chorus
  <-------Palm Mute--------> Gradual Release Towards end of 2nd B#
e|-----------------|--------------------------------------------------------|
B|-----------------|--------------------------------------------------------|
G|33333333---------|33333333------------------------------------------------|
D|33333333-66666666|33333333-66666666---------------------------------------|
A|11111111-66666666|11111111-66666666---------------------------------------|
E|---------44444444|---------44444444---------------------------------------|
I would give you one of my beers
But I've only got six
I would but I don't like to share
And I've only got six

Main Riff
e|--------------|-----------------------------------------------------------|
B|--------------|-----------------------------------------------------------|
G|5-8-5353-5-8-5|5-8-5353-5-8-5---------------------------------------------|
D|5-8-5353-5-8-5|5-8-5353-5-8-5---------------------------------------------|
A|3-6-3131-3-6-3|3-6-3131-3-6-3---------------------------------------------|
E|--------------|-----------------------------------------------------------|

Verse 2
e|-----------|--------------------------------------------------------------|
B|-----------|--------------------------------------------------------------|
G|5~~~~~5-8-5|5~~~~~5-8-54--------------------------------------------------|
D|5~~~~~5-8-5|5~~~~~5-8-54--------------------------------------------------|
A|3~~~~~3-6-3|3~~~~~3-6-32--------------------------------------------------|
E|-----------|--------------------------------------------------------------|
I like songs that always rhyme
That's why I make this one rhyme
[ Tab from: http://www.guitartabs.cc/tabs/d/deja_voodoo/beers_tab_ver_2.html ]
Chorus
  <-------Palm Mute--------> Gradual Release Towards end of last B#
e|-----------------|--------------------------------------------------------|
B|-----------------|--------------------------------------------------------|
G|33333333---------|33333333------------------------------------------------|
D|33333333-66666666|33333333-66666666---------------------------------------|
A|11111111-66666666|11111111-66666666---------------------------------------|
E|---------44444444|---------44444444---------------------------------------|
I would give you one of my beers
But I've only got six
I would but I don't like to share
And I've only got six

Bridge
e|--------------------------------------------------------------------------|
B|----8---------------------------------------------------------------------|
G|5-8-8---88888-7-3---3-4---------------------------------------------------|
D|5-8-8---88888-7-3---3-4---------------------------------------------------|
A|3-6-6---66666-5-1~~~1-2---------------------------------------------------|
E|--------------------------------------------------------------------------|
I've only got five
I've got four
3 2 1

Solo Lead
e|--------------------------------------------------------------------------|
B|6^-4-1-1-------1-4-1-6^-4-1----6^-4-1-1-------1-4-1-6^-4-1----------------|
G|------3-3---0h3-------------3--------3-3---0h3-------------3--------------|
D|--------------------------------------------------------------------------|
A|--------------------------------------------------------------------------|
E|--------------------------------------------------------------------------|
Yeah!

e|5^-3-------------3---5^-3-------------------------------------------------|
B|-----5353---0h35---5------5-3---6^-4-1-1-------1-4-1-6^-4-1---------------|
G|--------------------------------------3-3---0h3-------------3-------------|
D|--------------------------------------------------------------------------|
A|--------------------------------------------------------------------------|
E|--------------------------------------------------------------------------|
Right now
Yeah!

Solo Rhythm 
e|--------------|--------------|----------------|---------------------------|
B|--------------|--------------|----------------|---------------------------|
G|5-8-5353-5-8-5|5-8-5353-5-8-5|7-10-7575-7-10-7|5-8-5353-5-8-5-------------|
D|5-8-5353-5-8-5|5-8-5353-5-8-5|7-10-7575-7-10-7|5-8-5353-5-8-5-------------|
A|3-6-3131-3-6-3|3-6-3131-3-6-3|5-8--5353-5-8--5|3-6-3131-3-6-3-------------|
E|--------------|--------------|----------------|---------------------------|

e|--------------------------------------------------------------------------|
B|--------------------------------------------------------------------------|
G|5~~~~~85-55-55-555--------------------------------------------------------|
D|5~~~~~85-55-55-555--------------------------------------------------------|
A|3~~~~~63-33-33-333--------------------------------------------------------|
E|-------------------6^^^---------------------------------------------------|

Verse 3
e|-----------|--------------------------------------------------------------|
B|-----------|--------------------------------------------------------------|
G|5~~~~~5-8-5|5~~~~~5-8-54--------------------------------------------------|
D|5~~~~~5-8-5|5~~~~~5-8-54--------------------------------------------------|
A|3~~~~~3-6-3|3~~~~~3-6-32--------------------------------------------------|
E|-----------|--------------------------------------------------------------|
Words this good don't rhyme themselves
That's why I wrote them myself

Chorus
<-------Palm Mute--------> Gradual Release Towards end of last B#
e|-----------------|--------------------------------------------------------|
B|-----------------|--------------------------------------------------------|
G|33333333---------|33333333------------------------------------------------|
D|33333333-66666666|33333333-66666666---------------------------------------|X2
A|11111111-66666666|11111111-66666666---------------------------------------|
E|---------44444444|---------44444444---------------------------------------|
I would give you one of my beers
But I've only got six
I would but I don't like to share
And I've only got six
I would give you one of my beers
But I've only got six
I would but I don't like to share
And I've only got six

End		  On 4th time hold C and end on another C
e|-----|-----|--------------------------------------------------------------|
B|-----|-----|--------------------------------------------------------------|
G|5-8-5|5-3-5|--------------------------------------------------------------|
D|5-8-5|5-3-5|X4------------------------------------------------------------|
A|3-6-3|3-1-3|--------------------------------------------------------------|
E|-----|-----|--------------------------------------------------------------|
Only got six
Only got six
Comments