Deja Voodoo - Beers Chords & Tabs

 

Beers Chords & Tabs

Deja Voodoo Chords & Tabs

Version: 1 Type: Tab 0 ratings
1 star 2 stars 3 stars 4 stars 5 stars
comments

Beers Tab

--------------------------------------------------------
			Deja Voodoo - Beers
--------------------------------------------------------

Tabber - Zach Doney (doneyza@stac.school.nz)

This is an awesome song by and awesome New Zealand band.
Their album comes out soon so go out and buy it 'cause
you know it'll rock.
I just heard this on the radio and I'm pretty sure I've
got it right but I don't know about the intro and I haven't
a clue about the solos but I'll keep trying.

Intro

e|-----------|---------|
B|-----------|---------|
G|-55-8-5353-|-55-8-5--|
D|-55-8-5353-|-55-8-5--|
A|-33-6-3131-|-33-6-3--|
E|-----------|---------| Do this a few times and then

Verse

e|----------------------------------------------------------|
B|----------------------------------------------------------|
G|-5~~---------5-8-5------5~~-----------5--8--5-------------|
D|-5~~---------5-8-5------5~~-----------5--8--5-------------|
A|-3~~---------3-6-3------3~~-----------3--6--3-------------|
E|----------------------------------------------------------|
 ( I'm a great lyricist ...)
[ Tab from: http://www.guitartabs.cc/tabs/d/deja_voodoo/beers_tab.html ]
Chorus
 .........................Palm Mute........................
e|----------------------------------------------------------|
B|----------------------------------------------------------|
G|--3---------------------6---------------------------------|
D|--3-(x8)----------------6-(x8)----------------------------|x2
A|--1---------------------4---------------------------------|
E|----------------------------------------------------------|
(  I would give you ...) (beers, but I've only got six...)

Then:
Intro (Only Got Six!)
Verse (I like songs that...)
Chorus
Solo
Verse (Words this good...)
Chorus
Intro (play till end)

Lyrics:

I'm a great lyricist;
I can write songs like this.

I would give you one of my beers,
but I've only got six.
I would but I don't like to share,
And I've only got six!

I like songs that always rhyme,
That's why I make this one rhyme.

I would give you one of my beers,
but I've only got six.
I would but I don't like to share,
And I've only got six!
Only got Five!
I've only got Four! Three! Two! One!

Words this good don't write themselves,
That's why I wrote them myself.

I would give you one of my beers,
but I've only got six.
I would but I don't like to share,
And I've only got six!

Only Got Six! (repeat 'till song ends)

Sorry 'bout the general vague-ness of this whole tab but it should
give you a good indication of what's happening.
Email me (doneyza@stac.school.nz) for any comments and whatnot.
Comments