Deicide - Worry In The House Of Theves Chords & Tabs

 

Worry In The House Of Theves Chords & Tabs

Deicide Chords & Tabs

Version: 1 Type: Tab 0 ratings
1 star 2 stars 3 stars 4 stars 5 stars
comments

Worry In The House Of Theves Tab

   
Tune to Eb
Intro
Riff A.1
Eb|----Gtr 1,2------|----Gtr 1,2------|----Gtr 1,2--------|cont.>
Bb|-----------------|-----------------|-------------------|
Gb|-----------------|-----------------|-------------------|
Db|-----------------|-----------------|-------------------|
Ab|---4-5-4---5\4/5-|---4-5-4---5\4/5-|---4-5-4---5\4/5---|
Eb|-0-2-3-2-0-3\2/3-|-0-2-3-2-0-3\2/3-|-0-2-3-2-0-3\2/3---|
    . . . . .         . . . . .         . . . .
  |----Gtr 1,2------|
  |-----------------|
  |-----------------|
  |-----------------|
  |---4-5-4---5\4/5-|
  |-0-2-3-2-0-3\2/3-|
    . . . . .
Play Riff A.1 1 time

Riff A.2
Eb|----Gtr 1 only---|----Gtr 2 only---|continued>
Bb|-----------------|-----------------|
Gb|-----------------|-----------------|
Db|-----------------|-----------------|
Ab|---4-5-4---5\4/5-|---4-5-4---5\4/5-|
Eb|-0-2-3-2-0-3\2/3-|-0-2-3-2-0-3\2/3-|
    . . . . .         . . . . .
  |----Gtr 1,2------|----Gtr 1,2------|
  |-----------------|-----------------|
  |-----------------|-----------------|
  |-----------------|-----------------|
  |---4-5-4---5\4/5-|---4-5-4---5\4/5-|
  |-0-2-3-2-0-3\2/3-|-0-2-3-2-0-3\2/3-|
    . . . . .         . . . . .
Play Riff A.2 4 times

Riff B
Eb|----------------------------|
Bb|----------------------------|
Gb|-5--------------------------|
Db|---6-5-6-4--------------(4)-|
Ab|-----------5-6--------------|
Eb|---------------55555444-----|
              . . ........
[ Tab from: http://www.guitartabs.cc/tabs/d/deicide/worry_in_the_house_of_theves_tab.html ]
Then after you play Riff B play intro riff below twice
Eb|-----------------|
Bb|-----------------|
Gb|-----------------|
Db|-----------------|
Ab|---4-5-4---5\4/5-|
Eb|-0-2-3-2-0-3\2/3-|
    . . . . .

Play Riff B 1 time
Play intro riff twice
Play Riff B 1 time
Play intro riff twice
Play Riff B 1 time
Play intro riff twice

Chorus
Riff C
Eb|-----------------------------------------------------|continued>
Bb|-----------------------------------------------------|
Gb|-----------------------------------------------------|
Db|-----------------------------------------------------|
Ab|-1111111111----------3333333333----------1111111111--|
Eb|-----------2222222222----------2222222222------------|
    ..................................................
Eb--------------------------------|
Bb--------------------------------|
Gb--------------------------------|
Db--------------------------------|
Ab-----------33333333334444444444-|
Eb-2222222222---------------------|
   ..............................
Play Riff C 3 times

Play Riff A.1 1 time
Play Riff A.2 4 times
Play Riff B 1 time
Play intro riff 2 times
Play Riff B 1 time
Play intro riff 2 times
Play Riff B 1 time
Play intro riff 2 times
Play Riff B 1 time
Play intro riff 2 times
Play Riff C 3 times
Play Riff A.1 1 time
Play Riff A.2 4 times
Play Riff B 1 time
Play intro riff twice
Play Riff B 1 time
Play intro riff twice
Play Riff B 1 time
Play intro riff twice
Play Riff B 1 time
Play intro riff twice
Play Riff C 3 times
Play Riff A.1 1 time
Comments