Deicide - Trick Or Betrayed Chords & Tabs

 

Trick Or Betrayed Chords & Tabs

Deicide Chords & Tabs

Version: 1 Type: Tab 0 ratings
1 star 2 stars 3 stars 4 stars 5 stars
comments

Trick Or Betrayed Tab

   
=================================================================================================

Song: Trick or Betrayed
Artist: Deicide
Album: Once Upon the Cross

Tabbed by Chris Rezendes (dudemcrude@yahoo.com)

Tuning: Half step down

Notation Key
v: vibrato
t: tremolo bar
^: bend
.: palm mute
~: trill
p: pull-off
h: hammer-on
x: ghost note
/: slide up
\: slide down

Comments: Like most Deicide songs, the structure is very simple, while the figures and riffs are quite technical, and very tight-sounding.  Awesome song, one of my faves, I love the intro dialogue.  Feel free to e-mail me with comments or whatever.
=================================================================================================
[ Tab from: http://www.guitartabs.cc/tabs/d/deicide/trick_or_betrayed_tab.html ]
Fig. 1
e|---------------|-------------------|
B|---------------|-------------------|
G|---------------|-------------------|
D|--3------------|--3----------------|
A|--1-----0------|--1-----0----------|
E|----0-2---1-0--|----0-2---2-4-1-0--|       
      
Riff 1
e|-----------------------------------------------------|
B|-----------------------------------------------------|
G|-----------------------------------------------------|
D|-----------------------------------------------------|
A|--------444---333---555---444444444---333333333------|
E|--222555---222---555---444---------333----------2-5--|

Riff 2
e|-------------------------------|
B|-------------------------------|
G|-------------------------------|
D|-------------------------------|
A|-------------------------------|
E|--222222222-555-111111-333333--|

Riff 3
e|-------------------------------|
B|-------------------------------|
G|-------------------------------|
D|-------------------------------|
A|------------111----------------|
E|--000000000-----111111-333333--|

Riff 4
e|------------------|-------------------|------------------|-------------------|
B|------------------|-------------------|------------------|-------------------|
G|------------------|-------------------|------------------|-------------------|
D|------------------|-------------------|------------------|-------------------|
A|------1-0----333--|------1-0----------|------1-0----333--|------1-0-----444--|
E|--000-----111-----|--000-----111-444--|--000-----111-----|--000-----111------|


Order of play

Fig. 1 x8
Riff 1 x4
Riff 2 x2
Riff 3 x2
Riff 2 x2
Riff 3 x2
Riff 4 x2
Fig. 1 x8
Riff 1 x4
Riff 2 x2
Riff 3 x2
Riff 2 x2
Riff 3 x2
Riff 4 x2
Comments