Deicide - Bastards Of Christ Chords & Tabs

 

Bastards Of Christ Chords & Tabs

Deicide Chords & Tabs

Version: 2 Type: Tab 0 ratings
1 star 2 stars 3 stars 4 stars 5 stars
comments

Bastards Of Christ Tab

   
/---------------------------------------------------------------------------
/ The following is the author's own interpretation of the song, to be used -
/ for studying or private use only, removal of any part of this ten line   -
/ header is illegal!!!  Removal of the transcribers name or anything       -
/ relevant to the transcriber is also illegal, as so is the removal of the -
/ place inwhich the tab was downloaded. Publishing as well as printing of  -
/ the tab is illegal without permission of the transcriber and copyright   -
/ owner of the song. Failure to apply to these laws result will in legal   -
/ action from the appropriate parties.                                     -
/---------------------------------------------------------------------------
 
                      DEICIDE - BASTARDS OF CHRIST
                  From the Album SERPENTS OF THE LIGHT
                   Copyright 1997 ROADRUNNER RECORDS

                          New Version - MAR '04
 
Transcribed by: death8699 & INVERTED
 
For Questions, Comments, Newest Version, or Corrections contact
 death8699: at ArghEnemies@aol.com 
  INVERTED: at Inverted_one@hotmail.com
 
Check Out Death8699.com, With More Transcriptions On It:
 http://www.death8699.com

Gtr I (Eb Ab Db Gb Bb Eb) - 'Untitled'
Gtr II (Eb Ab Db Gb Bb Eb) - 'Untitled'


  Fast Metal Q=194
 4/4
  Gtr I
  PM---------------------------------------------------------------|
  S S S S S  S S S S S S S S S S S   S S S S S S S S S S S S S S S S
|----------------------------------|----------------------------------|
|----------------------------------|----------------------------------|
|----------------------------------|----------------------------------|
|----------------------------------|----------------------------------|
|----------------------------------|----------------------------------|
|-0-0-2-2-2--2-2-2-2-2-2-2-2-2-2-2-|-0-0-2-2-2-2-2-2-3-3-3-3-2-2-2-2--|
|
| Gtr II
| E   E   H.                         E   E   Q       Q       Q
|----------------------------------|----------------------------------|
|----------------------------------|----------------------------------|
|----------------------------------|----------------------------------|
|----------------------------------|----------------------------------|
|-2---4----------------------------|-2---4-----------5-------4--------|
|-0---2----------------------------|-0---2-----------3-------2--------|


  Gtr I
  PM--------------------------------------------------------------|
  S S S S S S S S S S S S S S S S   S S S S S S S S S S S S S S S S
|---------------------------------|---------------------------------|
|---------------------------------|---------------------------------|
|---------------------------------|---------------------------------|
|---------------------------------|---------------------------------|
|---------------------------------|---------------------------------|
|-0-0-2-2-2-2-2-2-2-2-2-2-2-2-2-2-|-0-0-2-2-2-2-2-2-3-3-3-3-2-2-2-2-|
|
| Gtr II
|         PM--------------------|           PM--------------------|
| E   E   S S S S S S S S S S S S   E   E   S S S S S S S S S S S S
|---------------------------------|---------------------------------|
|---------------------------------|---------------------------------|
|---------------------------------|---------------------------------|
|---------------------------------|---------------------------------|
|-2---4---------------------------|-2---4---------------------------|
|-0---2---2-2-2-2-2-2-2-2-2-2-2-2-|-0---2---2-2-2-2-3-3-3-2-2-2-2-2-|


    Gtrs I, II
    PM--------------------------------------------------------------|
    S S S S S S S S S S S S S S S S   S S S S S S S S S S S S S S S S   4x
||----------------------------------|-----------------------------------||
||o---------------------------------|----------------------------------o||
||----------------------------------|-----------------------------------||
||----------------------------------|-----------------------------------||
||o---------------------------------|----------------------------------o||
||--0-0-2-2-2-2-2-2-2-2-2-2-2-2-2-2-|-0-0-2-2-2-2-2-2-3-3-3-3-2-2-2-2---||


    PM--------------------|     PM------------------|
  E E   E E S S S S S S S S   E E E E S S S S S S S S
|---------------------------|-------------------------|
|---------------------------|-------------------------|
|---------------------------|-------------------------|
|---------------------------|-------------------------|
|-2-------------------------|-2-------1-1-1-1-1-1-1-1-|
|-0-0---0-0-2-3-2-2-0-0-0-0-|-0-0-0-0-----------------|
|
| Gtr II
|                                     PM------------|
| E H..                       H       S S S S S S S S
|---------------------------|-------------------------|
|---------------------------|-------------------------|
|---------------------------|-------------------------|
|-2-------------------------|-------------------------|
|-2-------------------------|---------1-1-1-1-1-1-1-1-|
|-0-------------------------|-------------------------|


                             5/4
    PM------------------------------------------------------|
  E E   E E S S S S S S S S   E E E E S S S S S S S S S S S S
|---------------------------|---------------------------------|
|---------------------------|---------------------------------|
|---------------------------|---------------------------------|
|---------------------------|---------------------------------|
|-2-------------------------|-2-------1-1-1-1-1-1-1-1-3-3-3-3-|
|-0-0---0-0-2-3-2-2-0-0-0-0-|-0-0-0-0-------------------------|
|
|                                     PM--------------------|
| E H..                       H       S S S S S S S S S S S S
|---------------------------|---------------------------------|
|---------------------------|---------------------------------|
|---------------------------|---------------------------------|
|-2-------------------------|---------------------------------|
|-2-------------------------|---------1-1-1-1-1-1-1-1-3-3-3-3-|
|-0-------------------------|---------------------------------|


   4/4
      PM--------------------------------------------|
    E E E E S S S S S S S S   E E E E S S S S S S S S
||--------------------------|--------------------------|
||o-------------------------|--------------------------|
||--------------------------|--------------------------|
||--------------------------|--------------------------|
||o-2-----------------------|-2-------1-1-1-1-1-1-1-1--|
||--0-0-0-0-2-3-2-2-0-0-0-0-|-0-0-0-0------------------|


                           5/4
    PM------------------|     PM--------------------------|
  E E E E S S S S S S S S   E E E E S S S S S S S S S S S S  4x
|-------------------------|----------------------------------||
|-------------------------|---------------------------------o||
|-------------------------|----------------------------------||
|-------------------------|----------------------------------||
|-2-----------------------|-2-------1-1-1-1-1-1-1-1-3-3-3-3-o||
|-0-0-0-0-2-3-2-2-0-0-0-0-|-0-0-0-0--------------------------||


  $
 4/4
  PM--------------------------------------------------------------------|
  E E E E E E E E   E E E E E E E E   E  E E E E E E E   E  E E E E E E E
|-----------------|-----------------|------------------|------------------|
|-----------------|-----------------|------------------|------------------|
|-----------------|-----------------|------------------|------------------|
|-----------------|-----------------|------------------|------------------|
|-2---0-----2-----|-2---0-----2-----|-2----0-----2-----|-2----0-----2-----|
|---3---2-0---0-2-|---3---2-0---0-2-|----3---2-0---0-2-|----3---2-0---0-2-|
|
| Gtr II
| PM--------------------------------------------------------------------|
| E E E E E E E E   E E E E E E E E   E  E E E E E E E   E  E E E E E E E
|-----------------|-----------------|------------------|------------------|
|-----------------|-----------------|------------------|------------------|
|-----------------|-----------------|------------------|------------------|
|-----------------|-----------------|-9----7-----9-----|-9----7-----9-----|
|-2---0-----2-----|-2---0-----2-----|---10---9-7---7-9-|---10---9-7---7-9-|
|---3---2-0---0-2-|---3---2-0---0-2-|------------------|------------------|


 4/4
  PM---------------------------------------------------------------|
  S S S S S  S S S S S S S S S S S   S S S S S S S S S S S S S S S S
|----------------------------------|----------------------------------|
|----------------------------------|----------------------------------|
|----------------------------------|----------------------------------|
|----------------------------------|----------------------------------|
|----------------------------------|----------------------------------|
|-0-0-2-2-2--2-2-2-2-2-2-2-2-2-2-2-|-0-0-2-2-2-2-2-2-3-3-3-3-2-2-2-2--|
|
| E   E   H.                         E   E   Q       Q       Q
|----------------------------------|----------------------------------|
|----------------------------------|----------------------------------|
|----------------------------------|----------------------------------|
|----------------------------------|----------------------------------|
|-2---4----------------------------|-2---4-----------5-------4--------|
|-0---2----------------------------|-0---2-----------3-------2--------|


  PM--------------------------------------------------------------|
  S S S S S S S S S S S S S S S S   S S S S S S S S S S S S S S S S
|---------------------------------|---------------------------------|
|---------------------------------|---------------------------------|
|---------------------------------|---------------------------------|
|---------------------------------|---------------------------------|
|---------------------------------|---------------------------------|
|-0-0-2-2-2-2-2-2-2-2-2-2-2-2-2-2-|-0-0-2-2-2-2-2-2-3-3-3-3-2-2-2-2-|
|
|         PM------------------------------------------------------|
| E   E   S S S S S S S S S S S S   S S S S S S S S S S S S S S S S
|---------------------------------|---------------------------------|
|---------------------------------|---------------------------------|
|---------------------------------|---------------------------------|
|---------------------------------|---------------------------------|
|-2---4---------------------------|---------------------------------|
|-0---2---2-2-2-2-2-2-2-2-2-2-2-2-|-0-0-2-2-2-2-2-2-3-3-3-3-2-2-2-2-|


    Gtrs I, II
    PM--------------------------------------------------------------|
    S S S S S S S S S S S S S S S S   S S S S S S S S S S S S S S S S   3x
||----------------------------------|-----------------------------------||
||o---------------------------------|----------------------------------o||
||----------------------------------|-----------------------------------||
||----------------------------------|-----------------------------------||
||o---------------------------------|----------------------------------o||
||--0-0-2-2-2-2-2-2-2-2-2-2-2-2-2-2-|-0-0-2-2-2-2-2-2-3-3-3-3-2-2-2-2---||


  Faster Q=202
    PM----------------------------|      PM   PM        PM   PM
  E E E E E E E E   E E E E E E E E   Q  E Q  E Q    Q  E Q  E Q
|-----------------|-----------------|--------------|--------------|
|-----------------|-----------------|--------------|--------------|
|-----------------|-----------------|--------------|--------------|
|-----------------|-----------------|--------------|--------------|
|-2---------------|-------------5---|-2----5----3--|-2----5----3--|
|-0-0-1-0-5-0-3-0-|-7-0-5-0-7-0---0-|-0--0-3--0-1--|-0--0-3--0-1--|

[ Tab from: http://www.guitartabs.cc/tabs/d/deicide/bastards_of_christ_tab_ver_2.html ]
    PM-----------------------------|      PM   PM        PM   PM
  E E E E E E E E   E E E E  E E E E   Q  E Q  E Q    Q  E Q  E Q
|-----------------|------------------|--------------|--------------|
|-----------------|------------------|--------------|--------------|
|-----------------|------------------|--------------|--------------|
|-----------------|------------------|--------------|--------------|
|-2---------------|--------------7---|-2----5----3--|-2----5----3--|
|-0-0-3-0-7-0-5-0-|-8-0-7-0-10-0---0-|-0--0-3--0-1--|-0--0-3--0-1--|


    PM----------------------------|        PM   PM        PM   PM
  E E E E E E E E   E E E E E E E E     Q  E Q  E Q    Q  E Q  E Q
|-----------------|-----------------||---------------|---------------||
|-----------------|-----------------||o--------------|--------------o||
|-----------------|-----------------||---------------|---------------||
|-----------------|-------------7---||---------------|---------------||
|-2---2---5---3---|-7---5---8-------||o-2----5----3--|-2----5----3--o||
|-0-0---0---0---0-|---0---0---0---0-||--0--0-3--0-1--|-0--0-3--0-1---||


    PM----------------------------|      PM   PM        PM   PM
  E E E E E E E E   E E E E E E E E   Q  E Q  E Q    Q  E Q  E Q
|-----------------|-----------------|--------------|--------------|
|-----------------|-----------------|--------------|--------------|
|-----------------|-----------------|--------------|--------------|
|-----------------|-----------------|--------------|--------------|
|-2---------------|-------------5---|-2----5----3--|-2----5----3--|
|-0-0-1-0-5-0-3-0-|-7-0-5-0-7-0---0-|-0--0-3--0-1--|-0--0-3--0-1--|


    PM-----------------------------|      PM   PM        PM   PM
  E E E E E E E E   E E E E  E E E E   Q  E Q  E Q    Q  E Q  E Q
|-----------------|------------------|--------------|--------------|
|-----------------|------------------|--------------|--------------|
|-----------------|------------------|--------------|--------------|
|-----------------|------------------|--------------|--------------|
|-2---------------|--------------7---|-2----5----3--|-2----5----3--|
|-0-0-3-0-7-0-5-0-|-8-0-7-0-10-0---0-|-0--0-3--0-1--|-0--0-3--0-1--|


                                                            To Coda
    PM----------------------------|        PM   PM        PM   PM
  E E E E E E E E   E E E E E E E E     Q  E Q  E Q    Q  E Q  E Q
|-----------------|-----------------||---------------|---------------||
|-----------------|-----------------||o--------------|--------------o||
|-----------------|-----------------||---------------|---------------||
|-----------------|-------------7---||---------------|---------------||
|-2---2---5---3---|-7---5---8-------||o-2----5----3--|-2----5----3--o||
|-0-0---0---0---0-|---0---0---0---0-||--0--0-3--0-1--|-0--0-3--0-1---||


  Q=194
 4/4
        PM----------------------------------------------------------|
   E    E     E    E     S S S S S S S S     E  E E E S S S S S S S S
|----------------------------------------|----------------------------|
|----------------------------------------|----------------------------|
|----------------------------------------|----------------------------|
|----------------------------------------|----------------------------|
|--2-------------------------------------|---2--------1-1-1-1-1-1-1-1-|
|--0----0-----0----0-----2-3-2-2-0-0-0-0-|---0--0-0-0-----------------|
|
| Gtr II
|                        ~~~~~~~~~~~~~~~~~~~~~~~
|  |---3---|  |---3---|
|  E  E    E  E  E    E  H                  +W
|-12-------------------------------------|----------------------------|
|----13----------------------------------|----------------------------|
|---------14-----------------------------|----------------------------|
|------------14--------------------------|----------------------------|
|---------------15-----------------------|----------------------------|
|--------------------14-12---------------|-(12)-----------------------|


        PM-------------------------|      PM------------------|
   E    E E E S S S S  S S    S    S    E E E E S S S S S S S S
|------------------------------------|--------------------------|
|------------------------------------|--------------------------|
|------------------------------------|--------------------------|
|------------------------------------|--------------------------|
|--2---------------------------------|--2-------1-1-1-1-1-1-1-1-|
|--0----0-0-0-2-3-2-2--0-0----0----0-|--0-0-0-0-----------------|
|
|                                       ~~
|                      |----3----|
|  H.                  E    E    E      W
|-14b16r==============12-------------|--------------------------|
|--------------------------13--------|--------------------------|
|-------------------------------12---|--------------------------|
|------------------------------------|--------------------------|
|------------------------------------|-10-----------------------|
|------------------------------------|--------------------------|


 5/4                                           4/4
   PM--------|   PM----------------------------------------------------|
   S     S S S E E E E S S S S  S S    S    S    E E E E S S S S S S S S
|---------------------------------------------|--------------------------|
|---------------------------------------------|--------------------------|
|---------------------------------------------|--------------------------|
|---------------------------------------------|--------------------------|
|--3-----3-3-3-2------------------------------|--2-------1-1-1-1-1-1-1-1-|
|--------------0-0-0-0-2-3-2-2--0-0----0----0-|--0-0-0-0-----------------|
|
|  ~~~~~~                                        ~~
|                               |----3----|
|  W                            E    E    E      W
|-17b19========================12-------------|--------------------------|
|-----------------------------------13--------|--------------------------|
|----------------------------------------14---|--------------------------|
|---------------------------------------------|-\9-----------------------|
|---------------------------------------------|--------------------------|
|---------------------------------------------|--------------------------|


         PM------------------------------------|
   E     E     E     E     S  S  S  S  S  S  S  S
|-------------------------------------------------|
|-------------------------------------------------|
|-------------------------------------------------|
|-------------------------------------------------|
|--2----------------------------------------------|
|--0-----0-----0-----0-----2--3--2--2--0--0--0--0-|
|
|  S  S  S  S  S  S  S  S  S  S  S  S  S  S  S  S
|-12-12-12-12-12-12-12-12-14-14-14-14-14-14-14-14-|
|-------------------------------------------------|
|-------------------------------------------------|
|-------------------------------------------------|
|-------------------------------------------------|
|-------------------------------------------------|


 5/4
         PM-----------------------------------------------|
   E     E     E     E     S  S  S  S  S  S  S  S  S  S S S
|-----------------------------------------------------------|
|-----------------------------------------------------------|
|-----------------------------------------------------------|
|-----------------------------------------------------------|
|--2-----------------------1--1--1--1--1--1--1--1--3--3-3-3-|
|--0-----0-----0-----0--------------------------------------|
|
|                                                  ~~~
|  S  S  S  S  S  S  S  S  S  S  S  S  S  S  S  S  Q
|-15-15-15-15-15-15-15-15-15-14-14-14-14-14-14-14-17\-------|
|-----------------------------------------------------------|
|-----------------------------------------------------------|
|-----------------------------------------------------------|
|-----------------------------------------------------------|
|-----------------------------------------------------------|


   4/4
      PM--------------------------------------------|
    E E E E S S S S S S S S   E E E E S S S S S S S S
||--------------------------|--------------------------|
||o-------------------------|--------------------------|
||--------------------------|--------------------------|
||--------------------------|--------------------------|
||o-2-----------------------|-2-------1-1-1-1-1-1-1-1--|
||--0-0-0-0-2-3-2-2-0-0-0-0-|-0-0-0-0------------------|


                                                D.S. al Coda
                           5/4
    PM------------------|     PM--------------------------|
  E E E E S S S S S S S S   E E E E S S S S S S S S S S S S
|-------------------------|-----------------------------------||
|-------------------------|----------------------------------o||
|-------------------------|-----------------------------------||
|-------------------------|-----------------------------------||
|-2-----------------------|-2-------1-1-1-1-1-1-1-1-3-3-3-3--o||
|-0-0-0-0-2-3-2-2-0-0-0-0-|-0-0-0-0---------------------------||


  &
 4/4
    PM--------------------------------------------|
  E E E E S S S S S S S S   E E E E S S S S S S S S
|-------------------------|-------------------------|
|-------------------------|-------------------------|
|-------------------------|-------------------------|
|-------------------------|-------------------------|
|-2-----------------------|-2-------1-1-1-1-1-1-1-1-|
|-0-0-0-0-2-3-2-2-0-0-0-0-|-0-0-0-0-----------------|


                                                D.S. al Coda
                           6/4
    PM------------------|     PM--------------------------|
  E E E E S S S S S S S S   E E E E S S S S S S S S S S S S E E
|-------------------------|--------------------------------------|
|-------------------------|--------------------------------------|
|-------------------------|--------------------------------------|
|-------------------------|---------------------------------2----|
|-2-----------------------|-2-------1-1-1-1-1-1-1-1-3-3-3-3-2----|
|-0-0-0-0-2-3-2-2-0-0-0-0-|-0-0-0-0-------------------------0----|




--------------------------------------------------------------------------------


Duration Legend
---------------
W - whole; H - half; Q - quarter; E - 8th; S - 16th; T - 32nd; X - 64th; a - acciaccatura
+ - note tied to previous; . - note dotted; .. - note double dotted
Uncapitalized letters represent notes that are staccato (1/2 duration)
Irregular groupings are notated above the duration line
Duration letters will always appear directly above the note/fret number it represents the
duration for.  Duration letters with no fret number below them represent rests.  Multi-
bar rests are notated in the form Wxn, where n is the number of bars to rest for.  Low
melody durations appear below the staff

Tablature Legend
----------------
 h   - hammer-on
 p   - pull-off
 b   - bend
 pb  - pre-bend
 r   - bend release (if no number after the r, then release immediately)
 /\  - slide into or out of (from/to "nowhere")
 s   - legato slide
 S   - shift slide
 - natural harmonic
[n]  - artificial harmonic
n(n) - tapped harmonic
 ~   - vibrato
 tr  - trill
 T   - tap
 TP  - trem. picking
 PM  - palm muting
\n/  - tremolo bar dip; n = amount to dip
 \n  - tremolo bar down
 n/  - tremolo bar up
/n\  - tremolo bar inverted dip
 =   - hold bend; also acts as connecting device for hammers/pulls
 <> - volume swell (louder/softer)
 x   - on rhythm slash represents muted slash
 o   - on rhythm slash represents single note slash

Misc Legend
-----------
 |  - bar
||  - double bar
||o - repeat start
o|| - repeat end
*|  - double bar (ending)
 :  - bar (freetime)
 $  - Segno
 &  - Coda
Tempo markers -  = BPM(8/16=s8/s16), where s8 = swing 8ths, s16 = swing 16ths



--------------------------------------------------------------------------------

** Generated using Power Tab Editor by Brad Larsen: The Official Power Tab Web Site
Comments