Deicide - Bastards Of Christ Chords & Tabs

 

Bastards Of Christ Chords & Tabs

Deicide Chords & Tabs

Version: 1 Type: Tab 0 ratings
1 star 2 stars 3 stars 4 stars 5 stars
comments

Bastards Of Christ Tab

   
Bastards of Christ

Deicide
Serpents of the Light

Tune down 1/2 step


Riff A               (end Riff A)
|--------------------------------|
|--------------------------------|
|--------------------------------|
|--------------------------------|
|--------------------------------|
|00222222222222220022222233332222|

Riff B                                                    (end Riff B)
|---------------------------------------------------------------------|
|---------------------------------------------------------------------|
|---------------------------------------------------------------------|
|---------------------------------------------------------------------|
|2-------------2------------------2-------------2-----------------3333|
|0-0-0-0-3333220-0-0-0-3-66666666-0-0-0-0-3333220-0-0-0-3-66666666----|

Riff C      (end Riff C)
|----------------|
|----------------|
|----------------|
|----------------|
|1---0-----0-----|
|--2---0-1---1-0-|
[ Tab from: http://www.guitartabs.cc/tabs/d/deicide/bastards_of_christ_tab.html ]
Riff D
|--------------------------------------------------------|
|--------------------------------------------------------|
|--------------------------------------------------------|
|--------------------------------------------------------|
|2--------------2---1---6---5--2----5----3--2----5----3--|
|0--0-0-3-0-1-0---0---0---0----0--0-3--0-1--0--0-3--0-1--|


|---------------------------------------------------------|
|---------------------------------------------------------|
|---------------------------------------------------------|
|---------------------------------------------------------|
|2-----------------------8---7--2----5----3--2----5----3--|
|0--0-0-8-0-7-0-10-0-8-0---0----0--0-3--0-1--0--0-3--0-1--|

                                                                        (end
Riff D)
|-----------------------------------------------------------------------------------|
|-----------------------------------------------------------------------------------|
|-----------------------------------------------------------------------------------|
|------------------------8---7------------------------------------------------------|
|-------8---7---10---8----------2----5----3--2----5----3--2----5----3--2----5----3--|
|0--0-0---0---0----0---0---0----0--0-3--0-1--0--0-3--0-1--0--0-3--0-1--0--0-3--0-1--|


Song structure:

Riff A x6
Riff B x6
Riff C x4
Riff A x5
Riff D x2
Riff B x6
Riff C x4
Riff A x2
Riff D x1
Riff B
Comments