Defunct - Bring It On Chords & Tabs

 

Bring It On Chords & Tabs

Defunct Chords & Tabs

Version: 1 Type: Bass Tab 0 ratings
1 star 2 stars 3 stars 4 stars 5 stars
comments

Bring It On Bass Tab

Artist: Defunct
Song Title: Bring It On (Wow Bow Wow)

Tabbed by Allan


Bass Intro:
Riff 1
G-----------------------------------------------------
D-----------------------------------------------------
A------22332321------22332321-----22332321------------
E--1-0-----------1-0----------1-0---------------------

Riff 2
G-----------------------------------------------------
D-----------------------------------------------------
A-----------------------------------------------------
E--0--2-1-0--2-1-0--2-1-0--0--2-1-0--2-1-0--2-1-0-----
[ Tab from: http://www.guitartabs.cc/tabs/d/defunct/bring_it_on_btab.html ]
Riff 3
G-----------------------------------------------------
D-----------------------------------------------------
A-----------------------------------------------------
E--1-0-----1-0-----1-0-----1-0------------------------

Riff 4
G-----------------------------------------------------
D-----------------------------------------------------
A-----------------------------------------------------
E--1-0-0-0-0-1-0-0-0-0-1-0-0-0-0-1-0-0-0-0------------

Riff 5
G-----------------------------------------------------
D-----------------------------------------------------
A-----------------------------------------------------
E--1--0-----------------------------------------------


This sounds right, but you have to listen to the song
to get it down. 

Riff 1-4x
Riff 2-1x
Riff 3-1x
Riff 2-1x
Riff 4-2x
Riff 3-1x
Riff 2-1x
Riff 4-2x
Riff 5-1x

To fix it or make fun of me write:
NotreDrules@yahoo.com

you can get DeFuNcT's music at:
www.Defunctmusic.com
or
www.mp3.com

Thanks

Comments