Deftones - Venison Chords & Tabs

 

Venison Chords & Tabs

Deftones Chords & Tabs

Version: 1 Type: Tab 0 ratings
1 star 2 stars 3 stars 4 stars 5 stars
comments

Venison Tab

-------------------------------------------------------------------------------
			     VENISON (demo) - Deftones
-------------------------------------------------------------------------------

By: nick landon

i couldn't find this tab anywhere so i just figured it out. not too tough.
i hope its right, cuz this is my first attempt. oh and the rhythm is pretty easy
to work out

     Intro / Chorus   
e|---------------------------------------------------------------------------|
B|---------------------------------------------------------------------------|
G|-6-6-7--4-4----------------------------------------------------------------|
D|-6-6-7--4-4-4--------------------------------------------------------------|
A|-4-4-5--2-2-4--------------------------------------------------------------|
D|------------4--------------------------------------------------------------|
[ Tab from: http://www.guitartabs.cc/tabs/d/deftones/venison_tab.html ]
e|---------------------------------------------------------------------------|
B|---------------------------------------------------------------------------|
G|-6-6-7--4-4----------------------------------------------------------------|
D|-6-6-7--4-4-4-4-2-4-4------------------------------------------------------|
A|-4-4-5--2-2-4-4-2-4-4------------------------------------------------------|
D|------------4-4-2-4-4------------------------------------------------------|
    
     
     Verse - just a bunch of scratching, somewhere around the 4th and 5th
             frets plus i like to palm mute it but thats just me =)   
e|---------------------------------------------------------------------------|
B|---------------------------------------------------------------------------|
G|---------------------------------------------------------------------------|
D|-x-x-x-x-x-x-x-x-x-x-x-x-x-x-x-x-------------------------------------------|
A|-x-x-x-x-x-x-x-x-x-x-x-x-x-x-x-x-------------------------------------------|
D|-x-x-x-x-x-x-x-x-x-x-x-x-x-x-x-x-------------------------------------------|
     
     Pre-chorus (palm mute)
e|---------------------------------------------------------------------------|
B|---------------------------------------------------------------------------|
G|---------------------------------------------------------------------------|
D|-4-4-5-5-5-5---------------------------------------------------------------|
A|-4-4-5-5-5-5---------------------------------------------------------------|
D|-4-4-5-5-5-5---------------------------------------------------------------|
   
     Bridge
e|---------------------------------------------------------------------------|
B|---------------------------------------------------------------------------|
G|-2--4--5-4-2---------------------------------------------------------------|
D|-2--4--5-4-2----4-4-4-4-4-4-4-4-4---4-4-4-4-4-4-4-4--5-4-2-----------------|
A|-0--2--3-4-0----4-4-4-4-4-4-4-4-4---4-4-4-4-4-4-4-4--5-4-2-----------------|
D|----------------4-4-4-4-4-4-4-4-4---4-4-4-4-4-4-4-4--5-4-2-----------------|


well thats pretty much it. throw in some scratches here and there and steph's
yer uncle. the order of the song is like this:

Intro x2
Chorus x4
Verse
Pre-chorus
Chorus
Verse
Pre-chorus
Chorus
Bridge x2
Pre-chorus
Chorus

its a great song i think. shame it didn't make any of their albums. - landon
Comments