Deftones - Teething Chords & Tabs

 

Teething Chords & Tabs

Deftones Chords & Tabs

Version: 2 Type: Tab 0 ratings
1 star 2 stars 3 stars 4 stars 5 stars
comments

Teething Tab

   
Deftones, Teething.
Tabbed by Jordan Kell, zen_is@Hotmail.com.
  
Teething by Deftones
>From The Crow:  City of Angels Soundtrack

Drop D tuning
\=slide
*=harmonics
h=hammer-on
p=pull off
Intro:

E-----------------------5*------------------------
B-----------------------5*----------------------7*
G-----------------------------------------------7*
D-------------------------------------------------
A-------------------------------------------------
D-5p4-5h6-5p4-4-5p4-5p4---5p4-5h6-5p4-4-5p4-5p4---

E-----------------------5*------------------------
B-----------------------5*----------------------7*
G-----------------------------------------------7*
D-------------------------------------------------  x2
A-5-4-5-6-5-4-4-5-4-5-4---5-4-5-6-5-4-4-5-4-5-4---
D-5p4-5h6-5p4-4-5p4-5p4---5p4-5h6-5p4-4-5p4-5p4---


Chorus Riff:

D-------------------------------------------
A-x-3-2-x-3-2-x-3-2-x-3-2-x-3-2-x-3-2-x-3-2- x7
D-x-3-2-x-3-2-x-3-2-x-3-2-x-3-2-x-3-2-x-3-2-

D--------------
A-3-3-3-3-3-3-3
D-3-3-3-3-3-3-3
pm------------]

Verse:

D------------    D----------
A-5-4-5-6-5-4 x4 A-4-5-4-5-4
D-5p4-5h6-5p4    D-4-5p4-5p4
[ Tab from: http://www.guitartabs.cc/tabs/d/deftones/teething_tab_ver_2.html ]
E---------------5*--------------------------------------------------------------
B------------7*-5*--------------------------------------------------------------
G------------7*-----------------------------------------------------------------
D-------------------------------------------------------------------------------
A-5-4-5-6-5-4------5-4-5-6-5-4-x--x-x--x--x-x-5-4-5-6-5-4--5-4-5-6-5-4-4-5-4-5-4
D-5p4-5h6-5p4------5p4-5h6-5p4-x--x-x--x--x-x-5p4-5h6-5p4--5p4-5h6-5p4-4-5p4-5p4

Bridge:

D-----9-7-9-----9-7-9-----9-10-    D-9/10     D-9-7-9-7
A-----7-5/7-----7-5/7-----7/8-- x8 A-7/8- x14 A-7-5-7-5
D-O-O-------0-0-------0-0------    D-----     D--------

Ends with something like this:
D-x-9-7
A-x-7\5 x a whole lot till the end.
D------

D--------------
A-3-3-3-3-3-3-3
D-3-3-3-3-3-3-3
pm------------]
Lyrics:

It's really hard to understand Chino sometimes, but here are my screwed
up interpretations.

First is mine, don't whine,
I found you first,
They won't find inside you,
But if I should find or even see you,
Make you smile,
I look over and cry,
I get by!

But that's too bad, 
You get your grip,
Look at yourself,
You ain't no genius,
But look inside,
You won't find me,
I'm coming open,

First is waiting for,
I came to see,
Liquify the momma,
Fuck you, bitch,
ptthpbtithpthptahptn
I know it because I'm sick,
pbthhtpaabnb!

Chorus

Structure is something like this:
Intro
Chorus
Verse
Chorus
Verse
Chorus
Chorus
Feedback
Bridge
Ending Chorus

 
:: Ultimate Guitar Archive :: 
http://www.ultimate-guitar.com 



Comments