Deftones - Teething Chords & Tabs

 

Teething Chords & Tabs

Deftones Chords & Tabs

Version: 1 Type: Tab 0 ratings
1 star 2 stars 3 stars 4 stars 5 stars
comments

Teething Tab

   
Person: Cyprian

song: Teething

artist: Deftones

tab: Tuning - Drop "D" on 6th string. Listen to the song for timing and
rhythem. Since it's kind of rare, if you don't have the song let me
know and I might be able to arrange a download off my ftp site.
xenginenumber9x@aol.com

KEY:  ^ = Pull-off
     #* = Harmonic on that fret
      x = Muffle
      / = Slide Down
      \ = Slide Up

E-------------------------5*----------------------------|
B-------------------------5*-------------------------7*-|
G----------------------------------------------------7*-|
D----------------------------------------------------7*-|
A-------------------------------------------------------|
D-5^4-6^4-5^4-x-5-5^4-5^4----5^4-6^4-5^4-x-5-5^4-5^4----|
[ Tab from: http://www.guitartabs.cc/tabs/d/deftones/teething_tab.html ]
"Waa!" Main Pre-chorus Riff
E-----------------------------5*--------------------------7*
B-----------------------------5*--------------------------7*
G-----------------------------5*--------------------------7*
D-x-5^4-6^4-5^4^0-x-5-5^4-5^4----5^4-6^4-5^4^0-x-5-5^4-5^47*
A-x-5^4-6^4-5^4^0-x-5-5^4-5^4----5^4-6^4-5^4^0-x-5-5^4-5^4--
D-x-5^4-6^4-5^4^0-x-5-5^4-5^4----5^4-6^4-5^4^0-x-5-5^4-5^4--

Chorus/Riff
E---------|
B---------|
G---------|
D-3^2-x-x-|
A-3^2-x-x-|
D-3^2-x-x-|

During main riff.
E--------------|
B--------------|
G--------------|
D-5^4-6^4-5^4--|   >It's more fun if you fuck around with
A-5^4-6^4-5^4--|    harmonix while there's a pause when 
D-5^4-6^4-5^4--|    chino's singing

"You got the cash and all, but the fasion what the fuck you won't tell
me what you don't know" or "a reasons fine, that's why we get high, you
never know when you're gonna blow" depending on if you have studio or
live teething.
E----------------------------------|
B----------------------------------|
G----------------------------------|
D-----9/8-----9/8-----9/8-----9\10-|
A-----7/6-----7/6-----7/6-----7\8--|
D-0-0-----0-0-----0-0-----0-0------|

Riff/Outro Riff
E---------|---------|
B---------|---------|
G---------|---------|
D-8/9-x-x-|-7-5-7-5-|
A-6/7-x-x-|-5-3-5-3-|
D---------|---------|

That's it mothafuckers =) Best song by deftones, e-mail me at
xenginenumber9x@aol.com if ya need anything.


Comments