Deftones - Street Carp Chords & Tabs

 

Street Carp Chords & Tabs

Deftones Chords & Tabs

Version: 4 Type: Tab 0 ratings
1 star 2 stars 3 stars 4 stars 5 stars
comments

Street Carp Tab

   
Deftones	Street Carp						
C-G-C-F-A-D

Intro					seconde intro
|----------------------------------||--------------------------------|
|----------------------------------||--------------------------------|
|-4-4-4-4-4-4-4-4-4-8-8-8-8-8-8\7~-||-4-4-4-4-4-4-4-4-4/8-8-8-8-8-8~-|
|-4-4-4-4-4-4-4-4-4-8-8-8-8-8-8\7~-||-4-4-4-4-4-4-4-4-4/8-8-8-8-8-8~-|
|-2-2-2-2-2-2-2-2-2-6-6-6-6-6-6\5~-||-2-2-2-2-2-2-2-2-2/6-6-6-6-6-6~-|
|----------------------------------||--------------------------------|
[ Tab from: http://www.guitartabs.cc/tabs/d/deftones/street_carp_tab_ver_4.html ]
Couplet							denière fois avant le refrain
|-------------------------------------------------------------------||---------------------------------|
|-------------------------------------------------------------------||---------------------------------|
|----------------------------------4-4-4-4-4-4-4-4-4/8~~---8-8-8~---||---------------------------------|
|-6-7-6-0-6-9-6-0-6-7-6-0-6-9-6-0--4-4-4-4-4-4-4-4-4/8~~---8-8-8~-0-||-6-7-6-0-6-9-6-0-6-7-6-0-6-9-6-0-|
|-6-7-6-0-6-9-6-0-6-7-6-0-6-9-6-0--2-2-2-2-2-2-2-2-2/6~~---6-6-6~-0-||-6-7-6-0-6-9-6-0-6-7-6-0-6-9-6-0-|
|-6-7-6-0-6-9-6-0-6-7-6-0-6-9-6-0---------------------------------0-||-6-7-6-0-6-9-6-0-6-7-6-0-6-9-6-0-|

Refrain
|------------------------------------------------------------------|
|------------------------------------------------------------------|
|-8-8-8-8-8-8-8-8-8-8-8-8-9~--9~---4-4-4-4-4-4-4-4-4-4-4-4-4-4-4-4-|
|-6-6-6-6-6-6-6-6-6-6-6-6-9~--9~---2-2-2-2-2-2-2-2-2-2-2-2-2-2-2-2-|
|-6-6-6-6-6-6-6-6-6-6-6-6-7~--7~---2-2-2-2-2-2-2-2-2-2-2-2-2-2-2-2-|
|-6-6-6-6-6-6-6-6-6-6-6-6-7~--7~---2-2-2-2-2-2-2-2-2-2-2-2-2-2-2-2-|

Explosion
|---------------------------------|
|---------------------------------|
|---------------------------------|
|-6-7-6-0-6-9-6-0-6-7-6-0-6-9-6-0-|
|-6-7-6-0-6-9-6-0-6-7-6-0-6-9-6-0-|
|-6-7-6-0-6-9-6-0-6-7-6-0-6-9-6-0-|

Outro
|---------------------------------|
|---------------------------------|
|---------------------------------|
|---------------------------------|
|---------------------------------|
|-6-7-6-0-6-9-6-0-6-7-6-0-6-9-6-0-|
Comments