Deftones - Street Carp Chords & Tabs

 

Street Carp Chords & Tabs

Deftones Chords & Tabs

Version: 2 Type: Tab 0 ratings
1 star 2 stars 3 stars 4 stars 5 stars
comments

Street Carp Tab

   
Street Carp-Deftones
White Pony

Drop C
C G C F A D

d-----------------------------------------------------------------
a-----------------------------------------------------------------
f-4-4-4-4-4-4-4-4-4-8-8-8-8-8-8-88-7------------------------------
c-x-x-x-x-x-x-x-x-x-x-x-x-x-x-x-xx-x------------------------------
g-2-2-2-2-2-2-2-2-2-6-6-6-6-6-6-66-5------------------------------
c----------------------------------0------------------------------

Verses
Fig 1. x3

d-----------------------------------------------------------------
a-----------------------------------------------------------------
f---------------------------------4-4-4-4-4-4-4-4-4-8-8-8-8-8-8-8-
c---------------------------------x-x-x-x-x-x-x-x-x-x-x-x-x-x-x-x-
G-6-7-6-0-6-9-6-0-6-7-6-0-6-9-6-0-2-2-2-2-2-2-2-2-2-6-6-6-6-6-6-6-
c-6-7-6-0-6-9-6-0-6-7-6-0-6-9-6-0---------------------------------
[ Tab from: http://www.guitartabs.cc/tabs/d/deftones/street_carp_tab_ver_2.html ]
d------------------------------------
a------------------------------------
f------------------------------------
c------------------------------------
g-6-7-6-0-6-9-6-0-6-7-6-0-6-9-6-0----
c-6-7-6-0-6-9-6-0-6-7-6-0-6-9-6-0----

Chorus 
Fig 2.

d----------------------------0----0-------------------------------
a----------------------------0----0-------------------------------
f----------------------------2----2----4-4-4-4-4-4-4-4-4-4-4-4-4--
c-6-6-6-6-6-6-6-6-6-6-6-6-6--2----2----2-2-2-2-2-2-2-2-2-2-2-2-2--
g-6-6-6-6-6-6-6-6-6-6-6-6-6--0----0----2-2-2-2-2-2-2-2-2-2-2-2-2--
c-6-6-6-6-6-6-6-6-6-6-6-6-6------------2-2-2-2-2-2-2-2-2-2-2-2-2--

Outro:

d-----------------------------------------------------------------
a-----------------------------------------------------------------
f-----------------------------------------------------------------
c-----------------------------------------------------------------
g-----------------------------------------------------------------
C-6-7-6-0-6-9-6-0-6-7-6-0-6-9-6-0-6-7-6-0-6-9-6-0-6-7-6-0-6-9-6-0-

thatís all

trevor jones
timmy91199@yahoo.ca
Comments