Deftones - Simple Man Chords & Tabs

 

Simple Man Chords & Tabs

Deftones Chords & Tabs

Version: 1 Type: Tab 0 ratings
1 star 2 stars 3 stars 4 stars 5 stars
comments

Simple Man Tab

Artist : Deftones 
        
Song: Simple Man (skynyrd cover)

Album : covers and rarities 2005

Guitarist : Stef Carpenter eccept the solo (by Joe Fraulob)

Tuning : Eb Ab Db Gb Bb Eb (low to high) down half step

Tabbed by Picardi simone (BeQuietAndDrive)

spiders82@hotmail.com


INTRO
                                  
e#|--------------------------------------------------------------3-----|
B#|---------------1-------------------------------1---------1------1---|
G#|----------0------0---0---------0---------2-------2---2-----2--------|
D#|------------2------2-----0-------0---0-----2-------2----------------|
A#|---0-2-3------3------------2-------2---0-----0---------0------------|
E#|-----------------------3-----3--------------------------------------|


VERSE 1  x2
                                      
e#|--------------------------------------------------------------3-----|
B#|---------------1-------------------------------1---------1------1---|
G#|----------0------0---0---------0---------2-------2---2-----2--------|
D#|------------2------2-----0-------0---0-----2-------2----------------|
A#|---0-2-3------3------------2-------2---0-----0---------0------------|
E#|-----------------------3-----3--------------------------------------|


BRIDGE to VERSE 2
e#|---------------------------------------------|
B#|---------------------------------------------|
G#|---------------------------------------------|
D#|---------------------------------------------|
A#|---0-2-3--5/7\5p3----5/7\5p3-0---------------|
E#|------------------3-------------0-3-0-3-/5---|
 
                             

VERSE 2 
                                       
e#|--------------------------------------------------------------3-----|
B#|---------------1-------------------------------1---------1------1---|
G#|----------0------0---0---------0---------2-------2---2-----2--------|
D#|------------2------2-----0-------0---0-----2-------2----------------|
A#|---0-2-3------3------------2-------2---0-----0---------0------------|
E#|-----------------------3-----3--------------------------------------|



CHORUS   repeat

e#|----------------------------------------|
B#|----------------------------------------|
G#|---5---5--------------------------------|
D#|---5---5-0-5-5-0-7--0-5-0-5/7--7-7-0----|
A#|---3---3-0-5-5-0-7--0-5-0-5/7--7-7-0----|
E#|---3---3-0-3-3-0-5--0-3-0-3/5--5-5-0----|



VERSE 3 
                                       
e#|--------------------------------------------------------------3-----|
B#|---------------1-------------------------------1---------1------1---|
G#|----------0------0---0---------0---------2-------2---2-----2--------|
D#|------------2------2-----0-------0---0-----2-------2----------------|
A#|---0-2-3------3------------2-------2---0-----0---------0------------|
E#|-----------------------3-----3--------------------------------------|


CHORUS

e#|----------------------------------------|
B#|----------------------------------------|
G#|---5---5--------------------------------|
D#|---5---5-0-5-5-0-7--0-5-0-5/7--7-7-0----|
A#|---3---3-0-5-5-0-7--0-5-0-5/7--7-7-0----|
E#|---3---3-0-3-3-0-5--0-3-0-3/5--5-5-0----|

 
 SOLO By Joe Fraulob
[ Tab from: http://www.guitartabs.cc/tabs/d/deftones/simple_man_tab.html ]
e#|----------------------------------------|-------------------------------------|-
B#|----5-8---------------8-----------------|-------------------------------------|-
G#|-\77--7b9------------r7---7---5---7-----|--7b9------------7-p-5---------------|-
D#|----------------------------------------|---------------------------7---------|-
A#|----------------------------------------|-------------------------------------|-
E#|----------------------------------------|-------------------------------------|-
                                                                              

-|----------------------8-------------|-------------------------------------|-
-|---------8-------10-------10-/-13---|--15-15b17-------------r17-15-13-15--|-
-|--5-/-9------9----------------------|-------------------------------------|-
-|------------------------------------|-------------------------------------|-
-|------------------------------------|-------------------------------------|-
-|------------------------------------|-------------------------------------|-
                       

-|------------------------15b17-------|-------17-----20b22b20b23--20-17-----|-
-|--17r-15-13-------------------------|--17---------------------------------|-
-|------------------14----------------|-------------------------------------|-
-|------------------------------------|-------------------------------------|-
-|------------------------------------|-------------------------------------|-
-|------------------------------------|-------------------------------------|-
                                                                              

-|-----17-----------------------------|--------17----------------17---------|-
-|--17----17-----20b22--22r20-17-20---|--10/17----20b22----10/17----20b22---|-
-|------------------------------------|-------------------------------------|-
-|------------------------------------|-------------------------------------|-
-|------------------------------------|-------------------------------------|-
-|------------------------------------|-------------------------------------|-
                                                                              

-|--------17----------------------------|-------------------------------------|-
-|--10/17----20b22---17-20b22-17-20b22--|-------------------8-----------------|-
-|--------------------------------------|-------5--7b9r7b9----r7--5--9r7------|-
-|--------------------------------------|---\7---------------------------------|-
-|--------------------------------------|-------------------------------------|-
-|------------------------------------|-------------------------------------|-
                                                                              

-|--------5---------------------------|-------------------------------------|-
-|------------8-------8b10------------|------------------------------13--15-|-
-|--7b9-------------------------------|----------5--7/9--9/12--12/14--------|-
-|------------------------------------|----5/7------------------------------|-
-|------------------------------------|-------------------------------------|-
-|------------------------------------|-------------------------------------|-
                                                                              

-|-----------------------15-----------|----15-----------------15b17---------|-
-|--15b17---------10/17-----15b17r15--|---------15b17r15p13-----------------|-
-|------------------------------------|-------------------------------------|-
-|------------------------------------|-------------------------------------|-
-|------------------------------------|-------------------------------------|-
-|------------------------------------|-------------------------------------|-
                                                                              

-|--5---------------------------------|
-|------------------------------------|
-|-------7b9--7p5---------------------|
-|-----------------7------------------|
-|------------------------------------|
-|------------------------------------|
                                                                     
This is a beautiful cover!! I hope you enjoy

PLEASE RATE!!
Comments