Deftones - Root Chords & Tabs

 

Root Chords & Tabs

Deftones Chords & Tabs

Version: 1 Type: Tab 0 ratings
1 star 2 stars 3 stars 4 stars 5 stars
comments

Root Tab

#----------------------------------PLEASE NOTE---------------------------------#
#This file is the author's own work and represents their interpretation of the #
#song. You may only use this file for private study, scholarship, or research. #
#------------------------------------------------------------------------------##
Date: Tue, 21 Nov 1995 13:58:54 -0800 (PST)
From: James Albers 
Subject: Root.tab (Deftones)

Root-Deftones
Transcribed by James Albers

RIFF 1(Intro(3x)/verse(8x))        RIFF 1-END
E||------------------------------||------------------------||
B||------------------------------||------------------------||
G||----99--------77--------------||----99------------------||
D||------99-1010---1010-99-------||------99-1010 1-1--1-1--||
A||--77--------------------1010--||--77----------1-1--1-1--||
E||------------------------------||--------------0-0--0-0--||

RIFF 2(Chorus)
E||---------------------------||
B||---------------------------||
G||-----44--------------------||
D||--22-22-44-55-77-55-44-00--||
A||--22----22-33-55-33-22-XX--||
E||--00-------------------33--||

RIFF 3a       (2x)  RIFF 3b                       
E||--------------||----------------------------||
B||--------------||----------------------------||
G||--------------||---------------------9------||  Gotta have the 
D||--1-----1111--||--1-----11-1----1111-9------||  midrange chunk
A||--1-----1111--||--1-----11-1----1111-7------||  for this part.
E||--0-----0000--||--0-----00-0----0000-0------||
         pm....          pm....    pm....

Fill 1		            Fill 2(before Riff4)
E||----------------------||------------||
B||----------------------||------------||
G||-----------9-------0--||------------||
D||--11111111-9----------||--11111111--||
A||--11111111-7----------||--11111111--||
E||--00000000-0----------||--00000000--||
[ Tab from: http://www.guitartabs.cc/tabs/d/deftones/root_tab.html ]
Riff 4(Bridge-a la Korn)
E||-----------------------------------------------------||
B||-----------------------------------------------------||
G||-----------------------------------------------------||
D||------------------------------------------------3----||
A||--8\7-x-7\6-x-6\5-x-5\4-x-4\3-3-------2-------2--2---||
E||--6\5-x-5\4-x-4\3-x-3\2-x-2\1-1--0000-0-00-00-0------||


Fill 3(after repeat Riff3a/b)		    Fill 4(tremolo picking)
E||-----------------0----------------------0--||--0//--||
B||-------------------0--------------------0--||--0//--||
G||--(9)------4---------0------------------0--||--0//--||
D||--(9)--2-----------------------------------||--2//--||
A||--(7)----2---------------------------------||--2//--||
E||--(0)--------------------------------------||--0//--||

Riff 5(tremolo pick these notes)		      End fill
E||--------------------------------------------||-------------------||--1--||
B||--------------------------------------------||-------------------||--1--||
G||--------------------------------9--------9--||-------------------||--4--||
D||------6--7-6-------6--7-6-------7--------7--||--3-3-3-------3-3--||--3--||
A||--7-8--------8-7-8--------8-7---8----7---8--||--3-3-3-------3-3--||--3--||
E||------------------------------0--------0----||--1-1-1-------1-1--||--1--||

Sorry dudes, don't know the lyrics for this one! They don't include it 
with the CD.
-----------------------------------------------
What up dudes! This is one of the baddest songs on the Deftones 
Adrenaline album. For this song you gotta have that chunky distortion 
sound for the chorus and fill parts.  Also this song calls for some 
flange/chorus during the intro and bridge part. I didn't get around to 
putting out the oder, so listen for them on the album.
If you want to request another song to be transcribed, email me.
 Laters-James 



Comments