Deftones - Rickets Chords & Tabs

 

Rickets Chords & Tabs

Deftones Chords & Tabs

Version: 3 Type: Tab 0 ratings
1 star 2 stars 3 stars 4 stars 5 stars
comments

Rickets Tab

   
Deftones	Rickets							
Db-Ab-Db-Gb-Bb-eb

Refrain
|---------------------------------|
|---------------------------------|
|---------------------------------|
|-3-2-0-3-2-0-3-2-6-6-6-6-6-1-1-1-|
|-3-2-0-3-2-0-3-2-6-6-6-6-6-1-1-1-|
|-3-2-0-3-2-0-3-2-6-6-6-6-6-1-1-1-|

Passage suivant l'intro
|---------------------------------------------|
|---------------------------------------------|
|---------------------------------------------|
|---------------------------------------------|
|---------------------------------------------|
|-2p0-0--2p0-0--2p0-0-----2p0-1--2p0-1--2p0-0-|

"to look at every ..."
|----|
|----|
|----|
|-xx-|
|-xx-|
|-xx-|

Couplet
|--------------------------------------------|
|--------------------------------------------|
|--------------------------------------------|
|-2p0--2-2p0--2-2p0-0----2p0--2-2p0--2-2p0-0-|
|-2p0--2-2p0--2-2p0-0----2p0--2-2p0--2-2p0-0-|
|-2p0--2-2p0--2-2p0-0----2p0--2-2p0--2-2p0-0-|
  ..........................................

Partie électrique
|--------------------------------------------|
|--------------------------------------------|
|--------------------------------------------|
|--------------------------------------------|
|-----------------------12-11-11-11-11-11-11-|
|-12p0-0--12p0-0--12p0--12-11-11-11-11-11-11-|
[ Tab from: http://www.guitartabs.cc/tabs/d/deftones/rickets_tab_ver_3.html ]
Pont
|----------------12------12----------12-----12-12-12-12-12-12-12-12-12-12-12-12-12-12-12-12-|
|----------------11--------11--------11-----11-11-11-11-11-11-11-11-11-11-11-11-11-11-11-11-|
|----------------14----------14------14-----14-14-14-14-14-14-14-14-14-14-14-14-14-14-14-14-|
|-0~~~~~~~~~~~~~--------------------0-0------0--0--0--0--0--0--0--0--0--0--0--0--0--0--0--0-|
|-0~~~~~~~~~~~~~----------------------------------------------------------------------------|
|-0~~~~~~~~~~~~~----------------------------------------------------------------------------|
					       \_______________________________________________/
						                 jusqu'au final

Final : entamé par cet effet
|-12-12-12-12-12-12-12-12-12-12-12-12-12-12-12-12ssss-ss-ss-----------------------------------------|
|-11-11-11-11-11-11-11-11-11-11-11-11-11-11-11-11ss-ssssss--ss--------------------------------------|
|-14-14-14-14-14-14-14-14-14-14-14-14-14-14-14-14s-sss-s-sssssss------------------------------------|
|-0~~~~~~~~~~~~~~~~~~---------------------------------------ssssss----------------------------------|
|-0~~~~~~~~~~~~~~~~~~---------------------------------------sssssssssssssssssssssssssssssssssssssss-|
|-0~~~~~~~~~~~~~~~~~~---------------------------------------sssssssssssssssssssssssssssssssssssssss-|
   \_______________________________________________/
		    jusqu'au final
Comments