Deftones - Pink Maggit Chords & Tabs

 

Pink Maggit Chords & Tabs

Deftones Chords & Tabs

Version: 5 Type: Tab 0 ratings
1 star 2 stars 3 stars 4 stars 5 stars
comments

Pink Maggit Tab

   
-------------------------------------------------------------------------------------
			     Deftones - Pink Maggot
-------------------------------------------------------------------------------------
Tabbed by: lace656
Email: asl3955@sru.edu

Tuning: C-Ab-Db-Gb-Bb-Eb

Eb|-----------------------------------|
Bb|-----------------------------------|
Gb|-----2-------4---------------2-----|
Db|---2-------2---------6-------------|
Ab|--0-0--------------4-------0-------|
C_|----------0-0-----5-5-----1-1------|

Eb|---------------------------------------------------|
Bb|---------------------------------------------------|
Gb|-----2-------4---------------------------2---------|4X
Db|---2-------2---------6---466--7-63-----------------|
Ab|--0-0--------------4-------------------0-----------|
C_|----------0-0-----5-5-----------------1-1----------|
[ Tab from: http://www.guitartabs.cc/tabs/d/deftones/pink_maggit_tab_ver_5.html ]
Eb|---------------------------------------------------------------------------|
Bb|--5555555555555555-5555555555555555-7777777777777777-6666666666666666------|
Gb|--2222222222222222------------------6666666666666666-5555555555555555------|repeat
Db|--2222222222222222-2222222222222222-4444444444444444-3333333333333333------|
Ab|--0000000000000000-4444444444444444-4444444444444444-3333333333333333------|
C_|-------------------0000000000000000-5555555555555555-4444444444444444------|

Eb|----------------------------------------------|
Bb|----------------------------------------------|
Gb|-----2-------4---------------------------2----|
Db|---2-------2---------6---466--7-63------------|
Ab|--0-0--------------4-------------------0------|
C_|----------0-0-----5-5-----------------1-1-----|

Eb|-----------------------------------------------------|
Bb|-----------------------------------------------------|
Gb|-----2-------4--6b7b6---------------------------2----|end
Db|---2-------2---------------6---466--7-63-------------|
Ab|--0-0--------------------4-------------------0-------|
C_|----------0-0-----------5-5-----------------1-1------|

| b  bend
| /  slide up
| \  slide down
| h  hammer-on
| p  pull-off
| ~  vibrato
| +  harmonic
| x  Mute note
=====================================================================================
Comments