Deftones - One Weak Chords & Tabs

 

One Weak Chords & Tabs

Deftones Chords & Tabs

Version: 2 Type: Tab 0 ratings
1 star 2 stars 3 stars 4 stars 5 stars
comments

One Weak Tab

#----------------------------------PLEASE NOTE---------------------------------#
#This file is the author's own work and represents their interpretation of the #
#song. You may only use this file for private study, scholarship, or research. #
#------------------------------------------------------------------------------##
Date: Wed, 6 Dec 1995 16:01:47 -0800 (PST)
From: James Albers 
Subject: One_weak.tab (Deftones)

One Weak-Deftones

Riff 1				  Riff 2
e||--------------------------||--------------------------||
b||-- palm mute open notes --||------ w/ flanger --------||
G||--------------------------||--------------------------||
D||--------------------------||-----4--------------------||
A||--------------------------||-----4--------------------||
E||--00-2--00-2--00-2--00-3--||--00-2--------------00-3--||

Riff 3				  
e||--------------------------||
b||--------------------------||
G||--------------------------||
D||--------------------------||
A||--------------------------||
E||--0-22--0-22--0-22--0-23--||

Riff 4
e||--------------0------------------||
b||--------------0------------------||
G||--------------0------------------||
D||--6-6--6-------------------------||
A||--4-4--4-6-2-----55-444-777-554--||
E||---------400----033-222-555-332--||
[ Tab from: http://www.guitartabs.cc/tabs/d/deftones/one_weak_tab_ver_2.html ]
Fill 1	      Riff 5
e||--x-x--||---------------------------||
b||--x-x--||---------------------------||
G||--x-x--||---------------------------||
D||-------||---------------------------||
A||-------||----44----44----44-----4---||
E||-------||--0-22--0-22--0-22--0-2-3--||

Riff 5				Fill a	  Fill b
e||------------------------||--x-x--||-------||
b||------------------------||--x-x--||-------||  1/4 step release
G||--------------------**--||--x-x--||--^4---||  substitute fills @ ** 
D||------------------------||-------||-------||  
A||--444-222-444-222-4455--||-------||-------||
E||--222-000-222-000-2233--||-------||-------||

---------------------------------------------------------------
Nerve here I borned feeding on his lung
verve is his curse because he wanted to meet Christ alone
Bitch you're no good we could be so flown
Misunderstood we could be you're god
There in my bones we could be so flown
Misunderstood because he wanted to meet Christ alone but you will...

No you will never find me breech unborn Never come here to watch me burn 
Never bitch cause your scars show never will I burn 

Under, beneath the floor before his face cause you're no good
We could have been like one (fuck it)
Bitch you feel sore we could be so flown 
Misunderstood because he wanted to meet Christ alone but you will...

You will never find me breech unborn never sit and watch me burn 
Never bitch cause your scars show never will I burn
Will I burn, will I burn, will I burn

Don't try and bluff you'll never beg(3x)
Don't even waste your breath (fuck)
------------------------------------------------------
I think these riffs are right. The lyrics are from the CD booklet--this 
is why some of the other transcriptions(deftones) don't have lyrics--too 
funky for me to figure out(verve?!?).
Laters--
James 


Comments