Deftones - One Weak Chords & Tabs

 

One Weak Chords & Tabs

Deftones Chords & Tabs

Version: 1 Type: Tab 1 rating
1 star 2 stars 3 stars 4 stars 5 stars
comments

One Weak Tab

   
                  xxpowder420xx
Drop-D
Deftones
One Weak


Intro=bass
--------------------------------
-------------------------------- X 12
--------------------------------
0-2-2-0-2-2-0-2-2-0-2-0-2/3-3-3-

Guitar comes in (40.35 seconds)
--------------------------
---------------------------
---------------------------
x-x-5--x-x-5--x-x-5--x-x-6-  x8
x-x-5--x-x-5--x-x-5--x-x-6-
x-x-5--x-x-5--x-x-5--x-x-6-


---------------------------
---------------------------
---------------------------
x-x-5----------------x-x-6-  x4
x-x-5----------------x-x-6-
x-x-5----------------x-x-6-

---------------------------
---------------------------
---------------------------
x-x-5--x-x-5--x-x-5--x-x-6-  x8
x-x-5--x-x-5--x-x-5--x-x-6-
x-x-5--x-x-5--x-x-5--x-x-6-
[ Tab from: http://www.guitartabs.cc/tabs/d/deftones/one_weak_tab.html ]
-------------------------------------------------------------------
-------------------------------------------------------------------
-------------------------------------------------------------------  x4  PAUSE!
0-0--0-7-3--3-3-3-3--3-3-3-3/6-6-6-6-6/5-5-5-5-5/8-8-8-8-8/7-7-7-7-
0-0--0-7-3--3-3-3-3--3-3-3-3/6-6-6-6-6/5-5-5-5-5/8-8-8-8-8/7-7-7-7-
0-0--0-7-3--3-3-3-3--3-3-3-3/6-6-6-6-6/5-5-5-5-5/8-8-8-8-8/7-7-7-7-

Bass intro again 
--------------------------------
-------------------------------- X 12
--------------------------------
0-2-2-0-2-2-0-2-2-0-2-0-2/3-3-3-

--------------------------------
--------------------------------
-------------------------------- 
3-5-5-3-5-5-3-5-5-3-5-3-5/6-6-6- X 8
3-5-5-3-5-5-3-5-5-3-5-3-5/6-6-6-
3-5-5-3-5-5-3-5-5-3-5-3-5/6-6-6-

-------------------------------------------------------------------
-------------------------------------------------------------------
-------------------------------------------------------------------  X 8
0-0--0-7-3--3-3-3-3--3-3-3-3/6-6-6-6-6/5-5-5-5-5/8-8-8-8-8/7-7-7-7-
0-0--0-7-3--3-3-3-3--3-3-3-3/6-6-6-6-6/5-5-5-5-5/8-8-8-8-8/7-7-7-7-
0-0--0-7-3--3-3-3-3--3-3-3-3/6-6-6-6-6/5-5-5-5-5/8-8-8-8-8/7-7-7-7-

------------------------------------------------------------------
------------------------------------------------------------------
------------------------------------------------------------------
5-5-5-3-3-3-5-5-5-3-3-3-5-6-6-6---5-5-5-3-3-3-5-5-5-3-3-3-5-6-6-6- X 6
5-5-5-3-3-3-5-5-5-3-3-3-5-6-6-6---5-5-5-3-3-3-5-5-5-3-3-3-5-6-6-6-
5-5-5-3-3-3-5-5-5-3-3-3-5-6-6-6---5-5-5-3-3-3-5-5-5-3-3-3-5-6-6-6-

Comments