Deftones - One Weak Chords & Tabs

 

One Weak Chords & Tabs

Deftones Chords & Tabs

Version: 1 Type: Bass Tab 1 rating
1 star 2 stars 3 stars 4 stars 5 stars
comments

One Weak Bass Tab

   
Song:One Weak
Artist:Deftones
Album:Adrenaline


Standard Tuning (E,A,D,G)
Intro and Verse
G|----------------------------------------------------------------------|
D|----------------------------------------------------------------------|
A|----------------------------------------------------------------------|
E|0-2-2--0-2-2--0-2-2--0-2-0-2-3-3-3-0-2-2--0-2-2--0-2-2--0-2-0-2-3-3-3-|

Pre Chorus
G|------------------------------------|
D|------------------------------------|
A|------------------------------------|
E|-0-2-2-0-2-2-0-2-2-0-2-3------------|

Chorus
G|---------------------------------------------------|
D|---------------------------------------------------|
A|---4-4---4-----------------------------------------|
E|-----------4-0-0-0-0-2-3-3 3-3-2-2-5-5-5-5-3-3-3----|
[ Tab from: http://www.guitartabs.cc/tabs/d/deftones/one_weak_btab.html ]
Verse 2
G|----------------------------------------------------------------------|
D|----------------------------------------------------------------------|
A|----------------------------------------------------------------------|
E|0-2-2--0-2-2--0-2-2--0-2-0-2-3-3-3-0-2-2--0-2-2--0-2-2--0-2-0-2-3-3-3-|

Pre Chorus
G|------------------------------------|
D|------------------------------------|
A|------------------------------------|
E|-0-2-2-0-2-2-0-2-2-0-2-3------------|

Chorus
G|---------------------------------------------------|
D|---------------------------------------------------|
A|---4-4---4-----------------------------------------|
E|-----------4-0-0-0-0-2-3-3 3-3-2-2-5-5-5-5-3-3-3----|

Outro
G|-------------------------------|
D|-------------------------------|
A|-------------------------------|
E|-2-2-2-0-0-0-2-2-2-0-0-0-2-2-3-|

Alec Davis
Ibanez4000@aol.com

Comments