Deftones - Nosebleed Chords & Tabs

 

Nosebleed Chords & Tabs

Deftones Chords & Tabs

Version: 4 Type: Tab 0 ratings
1 star 2 stars 3 stars 4 stars 5 stars
comments

Nosebleed Tab

   
Deftones	Bored
E-A-D-G-B-E

Intro
|---------------|
|-0-0-----------|
|---------------|
|-4-4h5--5~--5~-|
|----h5--5~--5~-|
|----h3--3~--3~-|

Refrain
|--------------------------------|
|--------------------------------|
|--------------------------------|
|-7-6~--7-6~--7-6~----6*-7-4-4-4-|  harmonique artificielle
|-7-6~--7-4~--7-6~--0----7-4-4-4-|
|-5-4~--5-----5-4~-------5-2-2-2-|

Couplet
|------------------------------------------------------------------------------------7*~~-|
|------------------------------------------------------------------------7*7*7*7*7*7*-----|
|-----------------------------------------------------------------------------------------|
|-5-5---5-5-----------5-5---5-5-----------5-5---5-5-----------5-5---5-5-------------------|
|-5-5---5-5-----------5-5---5-5-----------5-5---5-5-----------5-5---5-5-------------------|
|-3-3---3-3-----------3-3---3-3-----------3-3---3-3-----------3-3---3-3-------------------|
  ...   ...           ...   ...           ...   ...           ...   ...

|-----------s7*s7*7*s-----------s7*sss7*s-----------s7*7*--7*~-----------------------|
|-----------7*ss7*s7*-----------s7*sss7*s-----------s7*----7*~-----------------------|
|-----------s7*sss7*s-----------s7*s7*7*s-----------s7*ss----------------------------|
|-5-5---5-5-----------5-5---5-5-----------5-5---5-5-----------5-5---5-5--------------|
|-5-5---5-5-----------5-5---5-5-----------5-5---5-5-----------5-5---5-5---//14b15~~~-|
|-3-3---3-3-----------3-3---3-3-----------3-3---3-3-----------3-3---3-3---//16b17~~~-|
[ Tab from: http://www.guitartabs.cc/tabs/d/deftones/nosebleed_tab_ver_4.html ]
Dernière du 3e Refrain
|--------------------------------7*~~~~~~~~~~~~~~~~~~7*7*7*-|
|--------------------------------7*~~~~~~~~~~~~~~~~~~7*7*7*-|
|--------------------------------7*~~~~~~~~~~~~~~~~~~7*7*7*-|
|-7-6~--7-6~--7-6~----6*-7-4--4--7*~~~~~~~~~~~~~~~~~~-------|  harmonique artificielle
|-7-6~--7-4~--7-6~--0----7-4--4--7*~~~~~~~~~~~~~~~~~~-------|
|-5-4~--5-----5-4~-------5-2--2--7*~~~~~~~~~~~~~~~~~~-------|
                           ....
Pont
|-17--1716--1615--1514--1413--13--13--1312--1211--1110--10-9---8-| ces notes ne sont que des
|----------------------------------------------------------------| exemples : le son doit être
|----------------------------------------------------------------| totalement étouffé, les
|----------------------------------------------------------------| notes jouées de plus en plus
|----------------------------------------------------------------| graves sur la corde de mi aigu
|----------------------------------------------------------------|
.................................................................

Progressif ...
|---------------------------------------------------------------------|
|-0-06660000000000-0006660000000000-0006660000000000-5556660000000000-| PM de moins en moins posé
|-4-44444444444444-4444444444444444-4444444444444444-4444444444444444-|
|---------------------------------------------------------------------|
|---------------------------------------------------------------------|
|---------------------------------------------------------------------|
  ............................................

Go !
|----------------------------------7*~~~~~~~~~~~~7*7*7*-|
|----------------------------------7*~~~~~~~~~~~~7*7*7*-|
|----------------------------------7*~~~~~~~~~~~~7*7*7*-| la seconde fois, le mur 
|-101010101010-9-9-9-9-9-9-9-9-9-9-7*~~~~~~~~~~~~-------| d'harmoniques n'est pas joué
|-101010-8-8-8-9-9-9-9-9-9-9-9-9-9-7*~~~~~~~~~~~~-------|
|--8-8-8-0-0-0-7-7-7-7-7-7-7-7-7-7-7*~~~~~~~~~~~~-------|

Outro
|---------------------------------|
|---------------------------------|
|--------------------------4*4*4*-|
|-7-6~--7-6~--7-6~----6*-7-4*4*4*-|  harmonique en 6 artificielle
|-7-6~--7-4~--7-6~--0----7-4*4*4*-|
|-5-4~--5-----5-4~-------5--------|
Comments