Deftones - Nosebleed Chords & Tabs

 

Nosebleed Chords & Tabs

Deftones Chords & Tabs

Version: 3 Type: Tab 0 ratings
1 star 2 stars 3 stars 4 stars 5 stars
comments

Nosebleed Tab

   
-------------------------------------------------------------------------------
			     Nosebleed-Deftones
-------------------------------------------------------------------------------
Tabbed by:rockr_01
Email:afmondragonb@aol.com

Tuning:Drop-D (lo to hi-DADGBE)
[ Tab from: http://www.guitartabs.cc/tabs/d/deftones/nosebleed_tab_ver_3.html ]
Intro
e|-(5)-(5)-------------------------------------------------------------------|
B|-(5)-(5)-------------------------------------------------------------------|
G|-(5)-(5)-------------------------------------------------------------------|
D|---------5---5-------------------------------------------------------------|
A|---------5---5-------------------------------------------------------------|
D|---------5---5-------------------------------------------------------------|
Main Riff
e|---------------------(7)(5)------------------------------------------------|
B|---------------------------------------------------------------------------|
G|---------------------------------------------------------------------------|
D|---7-6-7-11---7-6-7----------4-4-------------------------------------------|
A|---7-6-7-11---7-6-7----------4-4-------------------------------------------|
D|---7-6-7-11---7-6-7----------4-4-------------------------------------------|
Chorus
e|------------------------------------------------------------------(7)------|
B|------------------------------------------------(7)(7)(7)(7)(7)(7)---------|
G|---------------------------------------------------------------------------|
D|---55--55------55--55------55--55------55--55------------------------------|
A|---55--55------55--55------55--55------55--55------------------------------|
D|---55--55------55--55------55--55------55--55------------------------------|
PM.............................................
Chorus Prt.2
e|------------(7)(7)(7)(7)(7)-----------(5)(5)(5)(5)(5)----------------------|
B|------------(7)(7)(7)(7)(7)-----------(5)(5)(5)(5)(5)----------------------|
G|------------(7)(7)(7)(7)(7)-----------(5)(5)(5)(5)(5)----------------------|
D|---55--55---(7)(7)(7)(7)(7)--55--55---(5)(5)(5)(5)(5)----------------------|
A|---55--55--------------------55--55----------------------------------------|
D|---55--55--------------------55--55----------------------------------------|
PM...........................................................................
Chorus Prt. 2 (continued)
e|------------(7)(7)(7)--(7)play this harmonic without PM--------------------|
B|------------(7)(7)(7)------------------------------------------------------|
G|------------(7)(7)(7)------------------------------------------------------|
D|---55--55---(7)(7)(7)----------55--55--------------------------------------|
A|---55--55----------------------55--55--------------------------------------|
D|---55--55----------------------55--55-5/19/7-------------------------------|

Main Riff Before Weird Part
e|-----------------------(7)(5)-----(5)---no PM on these harmonics-----------|
B|----------------------------------(5)--------------------------------------|
G|---------------------------------------------------------------------------|
D|---7-6-7-11---7-6-7-----------4-4------------------------------------------|
A|---7-6-7-11---7-6-7-----------4-4------------------------------------------|
D|---7-6-7-11---7-6-7-----------4-4------------------------------------------|
PM...........................................................................
(part with weird little noises {harmonics?}in between these two)
Bridge
e|---------------------------------------------------------------------------|
B|-------555-----------------------------------------------------------------|
G|----555---444444444--------------------------------------------------------|
D|---------------------------------------------------------------------------|
A|---------------------------------------------------------------------------|
D|---------------------------------------------------------------------------|
PM......................
Bridge Prt. 2
e|---------------------------------------------------------------------------|
B|---555-----444444444-------------------------------------------------------|
G|---555-----444444444-------------------------------------------------------|
D|---555-333-444444444-------------------------------------------------------|
A|-------333-----------------------------------------------------------------|
D|-------333-----------------------------------------------------------------|

Order:
Intro x1
Main Riff x8
Chorus
Chorus Prt. 2
Main Riff x8
Chorus
Chorus Prt.2
Main Riff x7
Main Riff Before Weird Part
(weird harmonic and bass part)
Bridge x4 (do the PM 2 times and halfway throgh the 3rd time, dont PM)
Bridge Prt. 2 x4
(weird harmonic and bass part)
Bridge x4 (do the PM 2 times and halfway throgh the 3rd time, dont PM)
Bridge Prt. 2 x4
(only Chino is singing here, no bass or guitar.)
Main Riff x8

NOTE: I think in that weird harmonic part, Chi is plucking his strings at the
headstock!!! i dont really know how they got the sound like that.)

| /  slide up
| \  slide down
| h  hammer-on
| p  pull-off
| ~  vibrato
|()  harmonic
| x  Mute note
----------------------------------------------------------------------------
Comments