Deftones - Needles And Pins Chords & Tabs

 

Needles And Pins Chords & Tabs

Deftones Chords & Tabs

Version: 1 Type: Tab 0 ratings
1 star 2 stars 3 stars 4 stars 5 stars
comments

Needles And Pins Tab

   
Artist: Deftones
Album: Deftones
Song: Needles and Pins
Tuning: G# Eb Ab Db Gb Bb
(1/2 step down...G# 1 1/2 step down from standard B)

Intro/Verses/Outro
Bb------------------------------------------------
Gb------------------------------------------------
Db----------0-------------------------------------
Ab-------9----------------------------------------
Eb------------------------------------------------
G#--10-------------------------------------------- play this numerous times
(p.m. the 10)
[ Tab from: http://www.guitartabs.cc/tabs/d/deftones/needles_and_pins_tab.html ]
Chorus
Bb------------------------------------------------
Gb------------------------------------------------
Db-11------7------12------------------------------
Ab--9------5------10------------------------------
Eb--9------5------10------------------------------
G#--9------5------10------------------------------

Bridge 
Bb------------------------------------------------
Gb------------------------------------------------
Db-------------9---9---9----9----9----------------
Ab-------------9---9---9----9----9----------------
Eb------------10--10--10---10---10----------------
G#--10-10-----------------------------------------
(p.m. the 10)

simple.
Comments