Deftones - My Own Summer Chords & Tabs

 

My Own Summer Chords & Tabs

Deftones Chords & Tabs

Version: 6 Type: Tab 0 ratings
1 star 2 stars 3 stars 4 stars 5 stars
comments

My Own Summer Tab

   
Song: My Own Summer (Shove It)
Album: Around The Fur 
Tabbed By: lord_of_the_bin
Tuning: Guitar: Drop Db (Db Ab Db Gb Bb eb) 
          Bass: Drop Db (Db Ab Db Gb)
- Drop the low E (sixth string, fourth on the bass) down to a D, 
then tune the whole thing (all the strings) down half a step (one interval).
This a great song thats easy to play and sounds great, especially with a band 
(the added bass line to the tab and vocals should make it alot easier if you wanna 
learn with your band, if you're in one). Good luck!
|------------KEY-------------|| ~ =Hold, Allow To Fade     |
| H =Hammer on               || P =Pull Off                |
| * =Palm Mute               || / =Slide Up To Next Note   |
| \ =Slide Down To Next Note || b =Bend                    |
| br=Bend, Release           || tr=Tremolo                 |
|----------------------------|For guitar: 
Try to use downstrokes only and try to use a fat plec/pick for the right sound.
If you have a distortion pedal, use it!
The tempo is about 142 but it changes a bit during the song.
Timing 4/4 (four beats in a bar)*INTRO*
0:00       0:01    -Repeat 8 Times-         0:27   -Repeat 4 Times-  0:40
t|-o---| e|--------------------------------|-----------------------------|
S|---o-| B|--------------------------------|-----------------------------|
         G|--------------------------------|-----------------------------|
 DRUM    D|--------------------------------|-----------------------------|
 INTRO   A|--------------------------------|-0-7-8-0-8-5-0-5-0-5-7-0-8-4-|
         D|-0-11-12-0-11-8-0-8-0-8-7-0-8-5-|-0-7-8-0-8-5-0-5-0-5-7-0-8-4-|
Timing--> | 1         2        3       4   | 1       2       3       4   |
         G|--------------------------------|-----------------------------|
         D|--------------------------------|-----------------------------|
         A|--------------------------------|-----------------------------|
         D|-5-12-12-12-11-11-11-8-8-8-8-85-|-0-7-8-0-8-5-0-5-0-5-7-0-8-4-|
          The bass comes in after the first
          four times this is played by the          guitar.
  0:41  -Repeat 8 Times-           01:08  -Repeat 4 Times- 01:20
e|--------------------------------|-----------------------------|
B|--------------------------------|-----------------------------|
G|--------------------------------|-----------------------------|
D|--------------------------------|-----------------------------|
A|--------------------------------|-0-7-8-0-8-5-0-5-0-5-7-0-8-4-|
D|-0-11-12-0-11-8-0-8-0-8-7-0-8-5-|-0-7-8-0-8-5-0-5-0-5-7-0-8-4-|
 | 1         2        3       4   | 1       2       3       4   |
G|--------------------------------|-----------------------------|
D|--------------------------------|-----------------------------|
A|--------------------------------|-----------------------------|
D|-5-12-12-12-11-11-11-8-8-8-8-85-|-0-7-8-0-8-5-0-5-0-5-7-0-8-4-|
 The bass comes in after the first four times this is played by the guitar.
  01:21                                                                        01:40
e|------------------|-------------------|------------------|------------------------|
B|------------------|-------------------|------------------|------------------------|
G|-9999999999999999-|-------------------|-9999999999999999-|------------------------|
D|-8888888888888888-|-555-8-0-555-88-00-|-8888888888888888-|-555/8-0-555/88-00~~~~~-|
A|-8888888888888888-|-555-8-0-555-88-00-|-8888888888888888-|-555/8-0-555/88-00~~~~~-|
D|-8888888888888888-|-555-8-0-555-88-00-|-8888888888888888-|-555/8-0-555/88-00~~~~~-|
 | 1 2 3 4 1 2 3 4  | 1     2   3     4 | 1 2 3 4 1 2 3 4  | 1     2   3     4      |
G|------------------|-------------------|------------------|------------------------|
D|------------------|-------------------|------------------|------------------------|
A|------------------|-------------------|------------------|------------------------|
D|-8888888888888888-|-5-5-8-0-5-5-8--00-|-8888888888888888-|-5-5/8-0-5-5/88-00------|
   "I Think God..."                    "Theres No Crowds..."
  01:40-2:17 (No Guitar)  -Repeat 8 Times-  1            2           3       4
G|-----------------------------------------|
D|-----------------------------------------|
A|-----------------------------------------|
D|-0-12-12-12-12-11-11-11-11-8-8-8-8-5-5-5-|  "The Shade Is A Tool..."
  2:17   -Repeat 8 Times-          2:43                                                 3:00
e|--------------------------------|------------------|-------------------|------------------|
B|--------------------------------|------------------|-------------------|------------------|
G|--------------------------------|------------------|-------------------|------------------|
D|--------------------------------|-8888888888888888-|-555-8-0-555-88-00-|-8888888888888888-|
A|-0-11-12-0-11-8-0-8-0-8-7-0-8-5-|-8888888888888888-|-555-8-0-555-88-00-|-8888888888888888-|
D|-0-11-12-0-11-8-0-8-0-8-7-0-8-5-|-8888888888888888-|-555-8-0-555-88-00-|-8888888888888888-|
 | 1         2        3       4   | 1 2 3 4 1 2 3 4  | 1     2   3     4 | 1 2 3 4 1 2 3 4  |
G|--------------------------------|------------------|-------------------|------------------|
D|--------------------------------|------------------|-------------------|------------------|
A|--------------------------------|------------------|-------------------|------------------|
D|-5-12-12-12-11-11-11-8-8-8-8-85-| 8888888888888888-|-5-5-8-0-5-5-88-00-|-8888888888888888-|
                                    "I Think God..."                    "Theres No Crowds..."
  03:01                                                                           03:13
e|-------------------|-------------------|-------------------|-------------------------|
B|-------------------|-------------------|-------------------|-------------------------|
G|-------------------|-------------------|-------------------|-------------------------|
D|-555/8-0-555/88-00-|-555/8-0-555/88-00-|-555/8-0-555/88-00-|-555/8-0-555/88-00~~~~~~-|
A|-555/8-0-555/88-00-|-555/8-0-555/88-00-|-555/8-0-555/88-00-|-555/8-0-555/88-00~~~~~~-|
D|-555/8-0-555/88-00-|-555/8-0-555/88-00-|-555/8-0-555/88-00-|-555/8-0-555/88-00~~~~~~-|
 | 1     2   3     4 | 1     2   3     4 | 1     2   3     4 | 1     2   3     4       |
G|-------------------|-------------------|-------------------|-------------------------|
D|-------------------|-------------------|-------------------|-------------------------|
A|-------------------|-------------------|-------------------|-------------------------|
D|-5-5/8-0-5-5/8--00-|-5-5/8-0-5-5/8--00-|-5-5/8-0-5-5/8--00-|-5-5/8-0-5-5/8--00-------|
*OUTRO*
          03:20   -Repeat 3 Times-                                    03:34
Hf|-x-| e|-----------------------------|    |------------------------------|
        B|-----------------------------|    |------------------------------|
 DRUMS  G|-----------------------------|    |------------------------------|
 THING  D|-----------------------------|    |------------------------------|
 AGAIN  A|-0-7-8-0-8-5-0-5-0-5-7-0-8-4-|    |-0-7-8-0-8-5-0-5-0-5-7-0-8-4~-|
        D|-0-7-8-0-8-5-0-5-0-5-7-0-8-4-|THEN|-0-7-8-0-8-5-0-5-0-5-7-0-8-4~-| END ABRUPTLY
         | 1       2       3       4   |--->| 1       2       3       4    |
        G|-----------------------------|    |------------------------------|
        D|-----------------------------|    |------------------------------|
        A|-----------------------------|    |------------------------------|
        D|-0-7-8-0-8-5-0-5-0-5-7-0-8-4-|    |-0-7-8-0-8-5-0-5-0-5-7-0-8-4--|
          "Come..."                                        "Shove It Aside."
[ Tab from: http://www.guitartabs.cc/tabs/d/deftones/my_own_summer_tab_ver_6.html ]
Comments