Deftones - My Own Summer Chords & Tabs

 

My Own Summer Chords & Tabs

Deftones Chords & Tabs

Version: 3 Type: Tab 0 ratings
1 star 2 stars 3 stars 4 stars 5 stars
comments

My Own Summer Tab

   
T1: Aaron Irons, bananaCo89@hotmail.com, Deftones, My Own Summer (shove
 it), ?/?/98 

 S1: This tab is totally correct and i dont think a correct version has
 ever been posted on this site...so here it is., My Own Summer (shove it)
 | 
 Deftones | 
 words and music by Deftones | 

 transcribed by Aaron Irons 
 from the Axe tablature archive 
 http://members.xoom.com/theAxe/ <-great guitar page! 



 Drop D Tuning down 1/2 step 
 (low to high: Db Ab Db Gb Bb Eb) 

 Intro 
 ----- 
 Moderately Slow Rock = 70 
 *Gtr.1(elec. w/dist) 

 (4th time)1.Hey you 
 big star 
 tell 
 me when it's o__ 
 ___________ver 
 ||----------------------------------------|| 
 ||*--------------------------------------*|| 
 ||----------------------------------------|| 
 ||----------------------------------------|| Play 8 times 
 ||*--------------------------------------*|| (lyrics come in on 4th time)

 ||--0-11-12-0-11\8-0-8-0-8p7--0-8-5--5----|| 

 1st Chorus 
 -------------------- 
 (vocals tacet 1st chorus) 
 *Gtrs. 1 and 2 

 (4th time) 2.Hey You 

 ||--------------------------------------------------|| 
 ||*------------------------------------------------*|| 
 ||--------------------------------------------------|| 
 ||----0--7--8--0--8--5--0--5--0--5/7--0--8--4---4---|| play 4 times 
 ||*---0--7--8--0--8--5--0--5--0--5/7--0--8--4---4--*|| 
 ||----0--7--8--0--8--5--0--5--0--5/7--0--8--4---4---|| 
 *Gtr. 2(elec w/dist.) doubles gtr1. throughout 

 2nd Verse 
 --------- 
 big mood 
 guide me 
 to shelter 
 'cause im through 
 when the two 
 hots the six 
 and its summer 
 cloud come 

 ||----------------------------------------|| 
 ||*--------------------------------------*|| 
 ||----------------------------------------|| 
 ||----------------------------------------|| play 8 times 
 ||*--------------------------------------*|| vocals come in on 
 ||--0-11-12-0-11\8-0-8-0-8p7--0-8-5--5----|| first time 

 2nd Chorus 
 ---------- 
 *Gtrs. 1 and 2 

 Shove it shove it shove it (the sun) 
 shove it shove it shove it (the sun) 
 shove it shove it shove it (aside) 
 shove it aside 
 ||--------------------------------------------------|| 
 ||*------------------------------------------------*|| 
 ||--------------------------------------------------|| 
 ||----0--7--8--0--8--5--0--5--0--5/7--0--8--4---4---|| play 4 times 
 ||*---0--7--8--0--8--5--0--5--0--5/7--0--8--4---4--*|| 
 ||----0--7--8--0--8--5--0--5--0--5/7--0--8--4---4---|| 
 *Gtr. 2(elec w/dist.) doubles gtr1. throughout 


 1st Bridge 
 ---------- 
 *Gtrs. 1 and 2 
 I think god is moving 
 its tongue 
 ||------------------------------------------------------------------|| 
 ||*----------------------------------------------------------------*|| 
 ||--9-9-9-9-9-9-9-9-9-9-9-9-9-9-9-9-9-9-9-9-9-9-9-9-9-9-9-9-9-9-9---|| 
 ||--8-8-8-8-8-8-8-8-8-8-8-8-8-8-8-8-8-8-8-8-8-8-8-8-8-8-8-8-8-8-8---|| 
 ||*-8-8-8-8-8-8-8-8-8-8-8-8-8-8-8-8-8-8-8-8-8-8-8-8-8-8-8-8-8-8-8--*|| 
 ||--8-8-8-8-8-8-8-8-8-8-8-8-8-8-8-8-8-8-8-8-8-8-8-8-8-8-8-8-8-8-8---|| 
 (Incase I made a mistake, the 9888 is played 31 times) 


 -|--------------------------------------------| 
 -|--------------------------------------------| 
 -|--------------------------------------------| 
 -|-0---5--5--5--8--0---5--5--5--8--0--0--0----| 
 -|-0---5--5--5--8--0---5--5--5--8--0--0--0----| 
 -|-0---5--5--5--8--0---5--5--5--8--0--0--0----| 
 *repeat from beginning 

 There's no crowds in the 
 street and no sun 
 ||------------------------------------------------------------------|| 
 ||*----------------------------------------------------------------*|| 
 ||--9-9-9-9-9-9-9-9-9-9-9-9-9-9-9-9-9-9-9-9-9-9-9-9-9-9-9-9-9-9-9---|| 
 ||--8-8-8-8-8-8-8-8-8-8-8-8-8-8-8-8-8-8-8-8-8-8-8-8-8-8-8-8-8-8-8---|| 
 ||*-8-8-8-8-8-8-8-8-8-8-8-8-8-8-8-8-8-8-8-8-8-8-8-8-8-8-8-8-8-8-8--*|| 
 ||--8-8-8-8-8-8-8-8-8-8-8-8-8-8-8-8-8-8-8-8-8-8-8-8-8-8-8-8-8-8-8---|| 
[ Tab from: http://www.guitartabs.cc/tabs/d/deftones/my_own_summer_tab_ver_3.html ]
 -|--------------------------------------------| 
 -|--------------------------------------------| 
 -|--------------------------------------------| 
 -|-0---5--5--5--8--0---5--5--5--8--8--0--0----| 
 -|-0---5--5--5--8--0---5--5--5--8--8--0--0----| 
 -|-0---5--5--5--8--0---5--5--5--8--8--0--0----| 


 3rd verse 
 --------- 
 3.the shade is a tool a device a savior See i try 
 (in my own summer) 
 |-----------|----------|---------||----------|----------|---------|---------|

 |-----------|----------|---------||----------|----------|---------|---------|

 |-----------|----------|---------||----------|----------|---------|---------|

 |---(0)-----|----------|---------||-(0)------|----------|---------|---------|

 |---(0)-----|----------|---------||-(0)------|----------|---------|---------|

 |---(0)-----|----------|---------||-(0)------|----------|---------|-(0)-----|

 pitch:Eb >Gtr1 out 
 *get feedback during this part while bass and drums play 

 3rd Chorus 
 ---------- 


 and look up the sky 
 but my eyes burn cloud come Shove it shove it shove it (the sun) 
 shove it shove it shove it (the sun) 
 Shove it shove it shove it (the sun) 
 shove it aside 

 *Gtrs. 1 and 2 
 ----------------------||-------------------------------------------------||

 ----------------------||*-----------------------------------------------*||

 ----------------------||-------------------------------------------------||

 ----------------------||---0--7--8--0--8--5--0--5--0--5/7--0--8--4--4----||

 ----------------------||*--0--7--8--0--8--5--0--5--0--5/7--0--8--4--4---*||

 ----------------------||---0--7--8--0--8--5--0--5--0--5/7--0--8--4--4----||


 2nd Bridge 
 ---------- 

 I think god is mov_____ing 
 it's tongue 
 There's no crowd in the 
 street and no sun 
 ||-------------------------------------------------------------------|| 
 ||*-----------------------------------------------------------------*|| 
 ||--9-9-9-9-9-9-9-9-9-9-9-9-9-9-9-9-9-9-9-9-9-9-9-9-9-9-9-9-9-9-9-9--|| 
 ||--8-8-8-8-8-8-8-8-8-8-8-8-8-8-8-8-8-8-8-8-8-8-8-8-8-8-8-8-8-8-8-8--|| 
 ||*-8-8-8-8-8-8-8-8-8-8-8-8-8-8-8-8-8-8-8-8-8-8-8-8-8-8-8-8-8-8-8-8-*|| 
 ||--8-8-8-8-8-8-8-8-8-8-8-8-8-8-8-8-8-8-8-8-8-8-8-8-8-8-8-8-8-8-8-8--|| 

 (2nd time)in my 
 (3rd time) own 

 _________________________ ___________________________ 
 |1. | |2. | 
 -|-------------------------||-----------------------------|| 
 -|------------------------*||*-----------------------(0)-*|| 
 -|-------------------------||------------------------(0)--|| 
 -|-5-5-5-8-0--5-5-5-8-0-0--||--5-5-5-8-0--5-5-5-8-8-0-0---|| 
 -|-5-5-5-8-0--5-5-5-8-0-0-*||*-5-5-5-8-0--5-5-5-8-8-0-0--*|| 
 -|-5-5-5-8-0--5-5-5-8-0-0--||--5-5-5-8-0--5-5-5-8-8-0-0---|| 
 . after this go back . *play 3 times 
 . and do it again but. 
 . use the 2nd measure. 
 . on the 2nd time. . 
 .--------------------. 


 4th Chorus 
 ---------- 
 summer come shove it shove it shove it (the 
 sun) shove it shove it shove it (the 

 |-------------------------|--------|------||----------------------------------||

 |---------------------(0)-|--------|------||*--------------------------------*||

 |---------------------(0)-|--------|------||----------------------------------||

 |-5-5-5-8-0--5-5-5-8-0-0--|--------|------||--0-7-8-0-8-5-0-5-0-5/7-0-0-4--4--||

 |-5-5-5-8-0--5-5-5-8-0-0--|--------|------||*-0-7-8-0-8-5-0-5-0-5/7-0-0-4--4-*||

 |-5-5-5-8-0--5-5-5-8-0-0--|--------|------||--0-7-8-0-8-5-0-5-0-5/7-0-0-4--4--||



 sun) shove it shove it shove it (the sun) shove it aside 
 |---------------------------------|----------------------------------------||

 |---------------------------------|----------------------------------------||

 |---------------------------------|----------------------------------------||

 |---------------------------------|----------------------------4-----------||

 |---------------------------------|----------------------------4-----------||

 |-0-7-8-0-8-5-0-5-0-5/7-0-8-4--4--|--0-7-8-0-8-5-0-5-0-5/7-0-8-4-----------||


 Well thats it. I know this is correct...it may be off a little...but you
 can figure 
 out the order and stuff...but asll the riffs are right. 

 -----------------------------------------------------------------------------


 The Axe 
 http://members.xoom.com/theAxe/ 

 Contact me many ways! 
 ICQ:12668079 
 Yahoo! Pager- scorcho409 
 Aol IM- scorcho409 
 email- bananaCo89@hotmail.com 
Comments