Deftones - Minus Blindfold Chords & Tabs

 

Minus Blindfold Chords & Tabs

Deftones Chords & Tabs

Version: 3 Type: Tab 0 ratings
1 star 2 stars 3 stars 4 stars 5 stars
comments

Minus Blindfold Tab

Minus Blindfold-Deftones 
 
Riff 1   |...1-3.....  |...4.......   |..last... 
e||-------------------||-------------||---------|| 
b||------0-----0------||------0------||---------||   (#) means ring out 
G||----0-----0---0----||----0---0----||---------||   could play it for 
D||--2-----4------(4)-||--3------(3)-||---------||   fluid motion 
A||-------------------||-------------||--2-2-2--|| 
E||-------------------||-------------||--0-0-0--|| 
 
Riff 2							  Fill 1 
e||-------------------------------------0--||-----||-----------------------|| 
b||----------------<5>------------------0--||-----||-----<5>-<5>-<5>-<5>---|| 
G||------------------<5>----------------0--||-----||-----<5>-<5>-<5>-<5>---|| 
D||-----------------3--<5>--------------0--||--2--||-----<5>-<5>-<5>-<5>---|| 
A||--2-4-4-2--2-4-5-1-5-4---------------2--||--2--||-----------------------|| 
E||--0-2-2-0--0-2-3---3-2--0-2-2--0-0-2-3--||--0--||--x--------------------|| 
 
Riff 3	                    Fill 2 
e||-----------------------||-----------------------|| 
b||-----------<5><5>-<5>--||---------<5>-----------|| <#> are harmonics 
G||-----------<5><5>-<5>--||-------------<5>-------|| # fret is the general  
D||-----------<5><5>-<5>--||-----------------<5>---|| location of the 
A||--2-2--2-2-------------||--2-2-2-2--------------|| harmonic 
E||--0-0--0-0-------------||--0-0-0-0--------------|| 
Harmonics tacit last time 
 
Fill 3		  Riff 4.........   ..last time... 
e||--0//------||----------------||----------------|| 
b||--0//------||----------------||----------------|| 
G||--0//------||----------------||----------------|| 
D||--4//------||----------------||------------3---|| 
A||--4//------||------1---------||------1-----3---|| 
E||--2//------||--3-3----1-111--||--3-3----1--1---|| 
		 PM..............   PM..... 
 
End riff		  Fill 4       Tag Riff 
e||------------------||-----------||-----<12>---|| 
b||-------------<4>--||-----------||------<12>--|| 
G||-------------<4>--||-----------||------------|| 
D||-------------<4>--||-----------||------------|| 
A||--2-2----2--------||--33-11-0--||-2-2--2-2---|| 
E||--0-0-00-0--x-----||-----------||-0-0--0-0---|| 
 
Order: 
Riff 1(3x w/ "last")-Riff 2(2x)-Fill 1-Riff 1(2x)-Riff 3(4x) 
Riff 1(2x)-Riff 2(4x)-Fill 2-Riff1(2x)-Riff 3(4x) 
Riff 1(2x w/ "last")-Riff 2(4x)-Fill 3-Riff 4(14x + "last time") 
Riff 2(4x w/o "E")-End Riff(4x-4th use Fill4 instead of harmonics) 
End riff(3x) tag riff 

====
[ Tab from: http://www.guitartabs.cc/tabs/d/deftones/minus_blindfold_tab_ver_3.html ]
Comments