Deftones - Minerva Chords & Tabs

 

Minerva Chords & Tabs

Deftones Chords & Tabs

Version: 6 Type: Tab 0 ratings
1 star 2 stars 3 stars 4 stars 5 stars
comments

Minerva Tab

   
Minerva - Deftones


Tuning:  CGCFAD

I spaced out most of the song, because if I didn't it would
all look messed up.

Intro (Low treble)
-----------0--0--0--0--0--0--0--0--0--0--0--0--0-|
----------13-13-13-13-13-13-13-13-13-13-13-13-13-|
-14-14-14-12-12-12-12-12-12-12-12-12-12-12-12-12-|
-12-12-12----------------------------------------|
-------------------------------------------------|
-------------------------------------------------|

cont'd
-------------------------------------------------|
----------13----------13----------13-------------|
-14-14-14-14-14-14-14-14-14-14-14-14-14-14-14-14-|
-12-12-12-12-12-12-12-12-12-12-12-12-12-12-12-12-|
-------------------------------------------------|
-------------------------------------------------|

cont'd
-----------0--0--0--0--0--0--0--0--0--0--0--0--0--0--0--0-|
----------13-13-13-13-13-13-13-13-13-13-13-13-13-13-13-13-|
-14-14-14-12-12-12-12-12-12-12-12-12-12-12-12-12-12-12-12-|
-12-12-12-------------------------------------------------|
--0-------------------------------------------------------|
--0-------------------------------------------------------|

cont'd (Pick with more strengh towards the end of this part)
-------------------------------------------------|
----------13----------13----------13-------------|
-14-14-14-14-14-14-14-14-14-14-14-14-14-14-14-14-|
-12-12-12-12-12-12-12-12-12-12-12-12-12-12-12-12-|
--------------------------------------0--0--0--0-|
--------------------------------------0--0--0--0-|

Verse (Distortion)
-------------------------------------------------|
-------------------------------------------------|
-12-12-12-12/14-14-14-14-14-14-14-14-14-14-14-14-|
--x--x--x--x--x--x--x--x--x--x--x--x--x--x--x--x-|
-10-10-10-10/12-12-12-12-12-12-12-12-12-12-12-12-|
--0--0--0--0--0--0--0--0--0--0--0--0--0--0--0--0-|


cont'd (For this part you have to bend 9 and 11 while strumming)
---------------------------------------------------|
---------------------------------------------------|
-11-11-11-11-11/\11-11-11-11-11-11-11-11-11-11-11--|
--x--x--x--x--x---x--x--x--x--x--x--x--x--x--x--x--|
--9--9--9--9--9/\-9--9--9--9--9--9--9--9--9--9--9--|
--0--0--0--0--0---0--0--0--0--0--0--0--0--0--0--0--|

[ Tab from: http://www.guitartabs.cc/tabs/d/deftones/minerva_tab_ver_6.html ]
Chorus (Distortion)
-----------------------------------------------------------------|
-----------------------------------------------------------------|
-----------------------------------------------------------------|
-7-7-7-7-7-7-7-7-7-7-7-7-7-7-7-7---------------------------------|
-7-7-7-7-7-7-7-7-7-7-7-7-7-7-7-7-2-2-2-2-2-2-2-2-2-2-2-2-2-2-2-2-|
-5-5-5-5-5-5-5-5-5-5-5-5-5-5-5-5-2-2-2-2-2-2-2-2-2-2-2-2-2-2-2-2-|


Interlude (Low treble)
------------------------------------------------------|
------13-13-13-13-13-13-13-13-13-13-13-13-13-13-13-13-|
------12-12-12-12-12-12-12-12-12-12-12-12-12-12-12-12-|
0-0-0-------------------------------------------------|
0-0-0-------------------------------------------------|
0-0-0-------------------------------------------------|


Chorus Variation (Distortion)
-----------------------------------------------------------------|
-----------------------------------------------------------------|
-----------------------------------------------------------------|
-7-7-7-7-7-7-7-7-7-7-7-7-7-7-7-7---------------------------------|
-7-7-7-7-7-7-7-7-7-7-7-7-7-7-7-7-2-2-2-2-2-2-2-2-2-2-2-2-2-2-2-2-|
-5-5-5-5-5-5-5-5-5-5-5-5-5-5-5-5-2-2-2-2-2-2-2-2-2-2-2-2-2-2-2-2-|

cont'd
-------------------------------------------------------------------|
-------------------------------------------------------------------|
-------------------------------------------------------------------|
-------------------------------------------------------------------|
-0-0-0-0-0-0-0-0-0-0-0-0-0-0-0-0-1-0-0-0-0-0-0-0-0-0-0-0-0-0-0-0-0-|
-0-0-0-0-0-0-0-0-0-0-0-0-0-0-0-0-1-0-0-0-0-0-0-0-0-0-0-0-0-0-0-0-0-|

Second Interlude (Low treble)
-------------------------------------------------------|
-13-13-13-13-13-13-13-13-13-13-13-13-13-13-13-13-13----|
-12-12-12-12-12-12-12-12-12-12-12-12-12-12-12-12-12-14-|
----------------------------------------------------12-|
-------------------------------------------------------|
-------------------------------------------------------|

cont'd
-------------------------------------------------|
-13-13-13-13-13-13-13-13-13-13-13-13-13-13-13----|
-12-12-12-12-12-12-12-12-12-12-12-12-12-12-12-14-|
----------------------------------------------12-|
-------------------------------------------------|
-------------------------------------------------|

Outro (Low Treble, slow vibrato)
---------------------------------------------------|
-13~-----------------------------------------------|
-12~-----------------------------------------------|
---------------------------------------------------|
---------------------------------------------------|
---------------------------------------------------|
Comments