Deftones - Minerva Chords & Tabs

 

Minerva Chords & Tabs

Deftones Chords & Tabs

Version: 2 Type: Tab 0 ratings
1 star 2 stars 3 stars 4 stars 5 stars
comments

Minerva Tab

   
Deftones- "Minerva"
Tabbed BY IbanezDream

Tunings (Low to High) C# G# C# F# A# D#

Follow Song For timing.


     Intro/Bridge   Repeat Between these 2 notes.
[------------------------------------------------------------------------------
[------------------------------------------------------------------------------
[-17-17-17-17---Repeat 4X----14-14-14-14-- Repeat 4x---------------------------
[--0--0--0--0-----------------0--0--0--0---------------------------------------
[--0--0--0--0-----------------0--0--0--0---------------------------------------
[------------------------------------------------------------------------------

[ Tab from: http://www.guitartabs.cc/tabs/d/deftones/minerva_tab_ver_2.html ]
       Verse   (Distortion)      Switch Between 3 notes
[------------------------------------------------------------------------------
[------------------------------------------------------------------------------
[-12-12-12-12----14-14-14----11-11-11-11---------------------------------------
[--0--0--0--0-----0--0--0-----0--0--0--0---------------------------------------
[--0--0--0--0-----0--0--0-----0--0--0--0---------------------------------------
[--0--0--0--0-----0--0--0-----0--0--0--0---------------------------------------


	Chorus
[-------------------------------14h15-14h15-14h15-14h15------------------------
[------------------------------------------------------------------------------
[------------------------------------------------------------------------------
[---5--5--5--5----2-2-2-2------------------------------------------------------
[---5--5--5--5----2-2-2-2------------------------------------------------------
[---5--5--5--5----2-2-2-2------------------------------------------------------


Easy as heck, although you need delay pedals/ Heavy distorion.
Comments