Deftones - Minerva Chords & Tabs

 

Minerva Chords & Tabs

Deftones Chords & Tabs

Version: 1 Type: Tab 0 ratings
1 star 2 stars 3 stars 4 stars 5 stars
comments

Minerva Tab

   
Minerva	
Deftones
Deftones (self titled)
Tunings (Low to High) C# G# C# F# A# D#

Follow Song For timing.


Intro:  Clean
D#|-------------0---0---0---0---0---0---0---0---0--------------------------|
A#|------------13--13--13--13--13--13--13--13--13-----------13----------13-|
F#|---14---14--14--14--14--14--14--14--14--14--14--14-14-14-14-14-14-14-14-|
C#|---12---12--------------------------------------12-12-12-12-12-12-12-12-|
G#|----0-------------------------------------------------------------------|
C#|------------------------------------------------------------------------|

continued....
D#|----------------------------------------0--0--0--0--0--0--0--0--0--0--0--0--|
A#|-------13-13----13----13---------13-13-13-13-13-13-13-13-13-13-13-13-13-13--|
F#|-14-14-14-14-14-14-14-14---14-14-14-14-14-14-14-14-14-----------------------|
C#|-12-12-12-12-12-12-12-12---12-12-12-12--------------------------------------|
G#|----------------------------0-----------------------------------------------|
C#|----------------------------------------------------------------------------|

continued.....
D#|--0------------------------------------------------|
A#|-13-13--------------------------------13-13-13-13--|
F#|----14--14-14-14-14-14-14-14-14-14-14-14-14-14-14--|
C#|--------12-12-12-12-12-12-12-12-12-12-12-12-12-12--|
G#|---------------------0--0-----0--0--0--0--0--0--0--|
C#|---------------------------------------------------|
[ Tab from: http://www.guitartabs.cc/tabs/d/deftones/minerva_tab.html ]
Verse:
D#|--------------------------------------------------------------------------------|
A#|--------------------------------------------------------------------------------|
F#|12-12--12--14-14-14-14-14-14-14-14-14-14-14-11-11-11-11-11-11-11-11-11-11-11-11-|
C#|-x--x---x--x---x--x--x--x--x--x--x--x--x--x--x--x--x--x--x--x--x--x--x--x--x--x-|
G#|10-10--10--12-12-12-12-12-12-12-12-12-12-12--9--9--9--9--9--9--9--9--9--9--9--9-|
C#|-0--0---0---0--0--0--0--0--0--0--0--0--0--0--0--0--0--0--0--0--0--0--0--0--0--0-|

Chorus:                                        Interlude:
D#|------------------------------------------|--0--0--0--0--0--0--0--0--0--0--0--0-|
A#|------------------------------------------|-13-13-13-13-13-13-13-13-13-13-13-13-|
F#|7-7-7-7-7-7-7--4-4-4-4-4-4-4---2-2-2-22-2-|-14-14-14-14-14-14-14-14-14-14-14-14-|
C#|5-5-5-5-5-5-5--2-2-2-2-2-2-2---0-0-0-00-0-|--0--0--0--0--0--0--0--0--0--0--0--0-|
G#|5-5-5-5-5-5-5--2-2-2-2-2-2-2---0-0-0-00-0-|-------------------------------------|
C#|5-5-5-5-5-5-5--2-2-2-2-2-2-2---0-0-0-00-0-|-------------------------------------|

Outro:
D#|-------------0---0---0---0---0---0---0---0---0------------------0--0--0-|
A#|------------13--13--13--13--13--13--13--13--13-----------13----13-13-13-|
F#|---14---14--14--14--14--14--14--14--14--14--14--14-14-14-14-14-14-14-14-|
C#|---12---12--------------------------------------12-12-12-12-12----------|
G#|----0-------------------------------------------------------------------|
C#|------------------------------------------------------------------------|

continued....
D#|----0--0--0--0--0--0--0--0--0--0--0------------------0--0--0--0--0--0--0--0--|
A#|---13-13-13-13-13-13-13-13-13-13-13-13--------13-13-13-13-13-13-13-13-13-13--|
F#|---14-14-14-14-14-14-14-14-14-14-14-14--14-14-14-14-14-14-14-14-14-14-14-14--|
C#|------------------------------------12--12-12-12-12--------------------------|
G#|-----------------------------0-----------0-----------------------------------|
C#|-----------------------------------------------------------------------------|

continued.....
D#|--0--0--0--0-----0--0--0--0--0--0--0--0--0--0--0--0--0--0--0--0--|
A#|-13-13-13-13-13-13-13-13-13-13-13-13-13-13-13-13-13-13-13-13-13--|
F#|----------14-14-14-14-14-14-14-14-14-14-14-14-14-14-14-14-14-14--|
C#|-------------12-12-12-12-------------------------------------12--|
G#|-----------------------------------------------------------------|
C#|-----------------------------------------------------------------|
 
    Itlof
Comments