Deftones - Mascara Chords & Tabs

 

Mascara Chords & Tabs

Deftones Chords & Tabs

Version: 6 Type: Tab 0 ratings
1 star 2 stars 3 stars 4 stars 5 stars
comments

Mascara Tab

			     Mascara - Deftones                            ]
-----------------------------------------------------------------------------
Tabbed by: Vertpill
Email:

Tuning: drop D 1/2 down
/  slide up

          
    Intro  
e|---------------------------------|
B|---------------------------------|
G|---------------------------------|
D|---------------------------------|
A|----------------5---0------------|
D|---4/-8--7--4-----------4--------|

e|---------------------------------|
B|---------------------------------|
G|---------------------------------|
D|---------------------------------|
A|----------------5---0------------|
D|---4/-8--7--4-----------4--------|



e|---------------------------------|
B|---------------------------------|
G|---------------------------------|
D|---------------------------------|
A|----------------5---0------------|
D|---4/-8--7--4-----------4--------|



e|---------------------------------|
B|---------------------------------|
G|---------------------------0-----|
D|---------------------------------|
A|----------------5---0------------|
D|---4/-8--7--4-----------4--------|


       
   Verse    (play verse 7 Times) 
e|---------------------------------|
B|---------------------------------|
G|---------------------------------|
D|---------------------------------|
A|----------------5---0------------|
D|---4/-8--7--4-----------4--------|



e|---------------------------------|
B|---------------------------------|
G|---------------------------0-----|
D|---------------------------------|
A|----------------5---0------------|
D|---4/-8--7--4-----------4--------|


 
    Chorus (Play 4 times)
e|-------------------------------|
B|-------------------------------|
G|-------------------------------|
D|---8888888---------55555055----|
A|---8888888---------55555055----|
D|---8888888---------55555055----|

      Repeat Intro
       
      Reapeat Chorus
[ Tab from: http://www.guitartabs.cc/tabs/d/deftones/mascara_tab_ver_6.html ]
      Bridge
e|--------------------------------|
B|--------------------------------|
G|--------------------------------|
D|---12-12-12-12-----8-8-8-8-8----|
A|---12-12-12-12-----8-8-8-8-8----|
D|---12-12-12-12-----8-8-8-8-8----|

e|--------------------------------|
B|--------------------------------|
G|--------------------------------|
D|---12-12-12-12-----8-8-8-8-8----|
A|---12-12-12-12-----8-8-8-8-8----|
D|---12-12-12-12-----8-8-8-8-8----|

e|--------------------------------|
B|--------------------------------|
G|--------------------------------|
D|---12-12-12-12-----8-8-8-8-8----|
A|---12-12-12-12-----8-8-8-8-8----|
D|---12-12-12-12-----8-8-8-8-8----|



e|-------------------------------|
B|-------------------------------|
G|--------------------------1----|
D|---12-12-12-12-----4------1----|
A|---12-12-12-12-----4------1----|
D|---12-12-12-12-----4------2----|

    Outro
e|-------------------------------------------------------------------------|
B|-------------------------------------------------------------------------|
G|--1-------------------1------------------1-------------------------------|
D|-------1-------------------1-----------------1---------------------------|
A|------------1-------------------1------------------1---------------------|
D|------------------2------------------2------------------2----------------|

e|-------------------------------------------------------------------------|
B|-------------------------------------------------------------------------|
G|--1-------------------1------------------1-------------------------------|
D|-------1-------------------1-----------------1---------------------------|
A|------------1-------------------1------------------1---------------------|
D|------------------2------------------2------------------2----------------|

e|--------------------|
B|--------------------|
G|--1-----------------|
D|-------1------------|
A|------------1-------|
D|------------------2-|

End



===============================================================================
Comments