Deftones - Lotion Chords & Tabs

 

Lotion Chords & Tabs

Deftones Chords & Tabs

Version: 3 Type: Tab 0 ratings
1 star 2 stars 3 stars 4 stars 5 stars
comments

Lotion Tab

   
Deftones	Lotion							
Db-Ab-Db-Gb-Bb-eb

Couplet
|---------------------------------------------------------------------------------------------------|
|-0---0---0---0-------------------------------------0---0---0---0-----------------------------------|
|-0---0---0---0-------------------------------------0---0---0---0-----------------------------------|
|-4---4---2---2-------------------------------------4---4---2---2---0-1-1-1-0-1-1-1-0-1-1-1-0-1-1-1-|
|-------------------------------------------------------------------0-1-1-1-0-1-1-1-0-1-1-1-0-1-1-1-|
|-----------------0-1-1-1-0-1-1-1-0-1---1-0-1---1-------------------0-1-1-1-0-1-1-1-0-1-1-1-0-1-1-1-|
                  ...................   .....   .
 \_______________________________________________/
                         3x
[ Tab from: http://www.guitartabs.cc/tabs/d/deftones/lotion_tab_ver_3.html ]
Refrain
|------------------------------------------------------------|
|------------------------------------------------------------|
|-6~~~~-6-6~~~~-6-6~~~~-6-6~~~~-6~~~~-6-6~~~~-6-6~~~~-6-6----|
|-4~~~~-4-4~~~~-4-4~~~~-4-4-0~--5~~~~-5-5~~~~-5-5~~~~-5-5-0~-|
|-4~~~~-4-4~~~~-4-4~~~~-4-4-0~--5~~~~-5-5~~~~-5-5~~~~-5-5-0~-|
|-4~~~~-4-4~~~~-4-4~~~~-4-4-0~--5~~~~-5-5~~~~-5-5~~~~-5-5-0~-|

Montée
|---------------------------------|
|---------------------------------|
|-------------------6-6~--6-------|
|-----------------0-4-4~--5-0-0~~-|
|-----------------0-4-4~--5-0-0~~-|
|-0-4-4-4-0-4-4-4-0-4-4~--5-0-0~~-|
  ...............

Explosion
|---------------------------------|
|---------------------------------|
|---6-6-6---6-6-6---6-6~--6-------|
|-0-4-4-4-0-4-4-4-0-4-4~--5-0-0~~-|
|-0-4-4-4-0-4-4-4-0-4-4~--5-0-0~~-|
|-0-4-4-4-0-4-4-4-0-4-4~--5-0-0~~-|
Comments