Deftones - Lifter Chords & Tabs

 

Lifter Chords & Tabs

Deftones Chords & Tabs

Version: 1 Type: Tab 0 ratings
1 star 2 stars 3 stars 4 stars 5 stars
comments

Lifter Tab

   
#----------------------------------PLEASE NOTE--------------------------------#
#This file is the author's own work and represents their interpretation of the#
#song. You may only use this file for private study, scholarship, or research.#
#-----------------------------------------------------------------------------#

Date: Tue, 2 Jun 98 13:50 +0100
From: Heimer@t-online.de
Subject: d/deftones/lifter.crd

Deftones
"Lifter"
Adrenaline

Transcribed by Christopher D. Heimer

Tuning: Dropped D

1 E  2 B  3 G  4 D  5 A  6 D

^  hammer on
pm pick muted


Verse

Riff 1a (gtr.1, left)

|-----------------------------------|
|-----------------------------------|
|-----------------------------------|
|-----------------------------------|
|-----------------------------------|
|-0-2-2-2-2-2-2-2-22-3-3-3-3-3-3-2--|
  |--------------pm--------------|

Riff 1b (gtr.2, right)

|-----------------------------------|
|-----------------------------------|
|-----------------------------------|
|--------------------9-9-9-9-9-9-9--|
|--------------------8-8-8-8-8-8-8--|
|-0-2-2-2-2-2-2-2-2-----------------|
  |--------------pm--------------|

Riff 2 (Bridge) 

|-------2-------3-------2-------3---------------------3-|
|-------5-------6-------5-------6---------------------6-|
|-------4-------5-------4-------5---------------------5-|
|-------------------------------------------------------|
|-0^2-2---0^3-3---0^2-2---0^3-3---0^2-22-2^0-00-0^3-3---|
|-0^2-2---0^3-3---0^2-2---0^3-3---0^2-22-2^0-00-0^3-3---|

Riff 2b

|---------------------------------------|
|---------------------------------------|
|---------------------------------------|
|-0-2-2-2-2-2-2-2-2-3-3-3-3-3-3-3-2-----|
|---------------------------------------|
|---------------------------------------|
  |---------------pm--------------|

Riff 3 (Chorus, both tab lines are Riff 3 in complete) 
[ Tab from: http://www.guitartabs.cc/tabs/d/deftones/lifter_tab.html ]
|-------2-------3-------2-------3---------------------3-------2-------3-|
|-------5-------6-------5-------6---------------------6-------5-------6-|
|-------4-------5-------4-------5---------------------5-------4-------5-|
|-----------------------------------------------------------------------|
|-0^2-2---0^3-3---0^2-2---0^3-3---0^2-22-2^0-00-0^3-3---0^2-2---0^3-3---|
|-0^2-2---0^3-3---0^2-2---0^3-3---0^2-22-2^0-00-0^3-3---0^2-2---0^3-3---|
                                                     (^)  
continued...
2nd time play like above until (^), but then play
|-------------------------------------------------------------|
|-------------------------------------------------------------|
|-------------------------------------------------------------|
|-HTTP/1.0 400 Cache Detected Error
Server: squid/1.1.10-nf/2.0.4
Date: Tue, 08 Aug 2000 18:25:31 GMT
Expires: Tue, 08 Aug 2000 18:27:31 GMT
Last-Modified: Tue, 08 Aug 2000 18:25:31 GMT
Content-Type: text/html
Content-Length: 1630


   
      CleanWeb: Site Blocked
      
   

   >">'>">'>



Blocked Site


CleanWeb

You tried to access http://mud.leaseyourmind.com/gtab/d/deftones/lifter.crd. CleanWeb will not allow you to visit this site because it encountered a blocking code type 423 (Retrieval Aborted). This means that access to http://mud.leaseyourmind.com/gtab/d/deftones/lifter.crd has been blocked because the document contained inappropriate words. If you believe this is in error, please let us know.

Comments